  0
SECTION
  2
HEADER
  9
$ACADVER
  1
AC1015
  9
$ACADMAINTVER
 70
     6
  9
$DWGCODEPAGE
  3
ANSI_1254
  9
$INSBASE
 10
0.0
 20
0.0
 30
0.0
  9
$EXTMIN
 10
0.0
 20
0.0
 30
0.0
  9
$EXTMAX
 10
279.4
 20
215.9
 30
0.0
  9
$LIMMIN
 10
0.0
 20
0.0
  9
$LIMMAX
 10
279.4
 20
215.9
  9
$ORTHOMODE
 70
     0
  9
$REGENMODE
 70
     1
  9
$FILLMODE
 70
     1
  9
$QTEXTMODE
 70
     0
  9
$MIRRTEXT
 70
     1
  9
$LTSCALE
 40
1.0
  9
$ATTMODE
 70
     1
  9
$TEXTSIZE
 40
3.5
  9
$TRACEWID
 40
1.0
  9
$TEXTSTYLE
  7
Standard
  9
$CLAYER
  8
0
  9
$CELTYPE
  6
ByLayer
  9
$CECOLOR
 62
   256
  9
$CELTSCALE
 40
1.0
  9
$DISPSILH
 70
     0
  9
$DIMSCALE
 40
1.0
  9
$DIMASZ
 40
3.5
  9
$DIMEXO
 40
1.0
  9
$DIMDLI
 40
3.75
  9
$DIMRND
 40
0.0
  9
$DIMDLE
 40
0.0
  9
$DIMEXE
 40
1.0
  9
$DIMTP
 40
0.0
  9
$DIMTM
 40
0.0
  9
$DIMTXT
 40
3.5
  9
$DIMCEN
 40
2.5
  9
$DIMTSZ
 40
0.0
  9
$DIMTOL
 70
     0
  9
$DIMLIM
 70
     0
  9
$DIMTIH
 70
     1
  9
$DIMTOH
 70
     1
  9
$DIMSE1
 70
     0
  9
$DIMSE2
 70
     0
  9
$DIMTAD
 70
     1
  9
$DIMZIN
 70
     0
  9
$DIMBLK
  1

  9
$DIMASO
 70
     1
  9
$DIMSHO
 70
     1
  9
$DIMPOST
  1

  9
$DIMAPOST
  1

  9
$DIMALT
 70
     0
  9
$DIMALTD
 70
     3
  9
$DIMALTF
 40
0.0393700787
  9
$DIMLFAC
 40
1.0
  9
$DIMTOFL
 70
     1
  9
$DIMTVP
 40
0.0
  9
$DIMTIX
 70
     0
  9
$DIMSOXD
 70
     0
  9
$DIMSAH
 70
     0
  9
$DIMBLK1
  1

  9
$DIMBLK2
  1

  9
$DIMSTYLE
  2
ISO-25
  9
$DIMCLRD
 70
     0
  9
$DIMCLRE
 70
     0
  9
$DIMCLRT
 70
     0
  9
$DIMTFAC
 40
1.0
  9
$DIMGAP
 40
1.524
  9
$DIMJUST
 70
     0
  9
$DIMSD1
 70
     0
  9
$DIMSD2
 70
     0
  9
$DIMTOLJ
 70
     0
  9
$DIMTZIN
 70
     0
  9
$DIMALTZ
 70
     0
  9
$DIMALTTZ
 70
     0
  9
$DIMUPT
 70
     0
  9
$DIMDEC
 70
     2
  9
$DIMTDEC
 70
     2
  9
$DIMALTU
 70
     2
  9
$DIMALTTD
 70
     3
  9
$DIMTXSTY
  7
Standard
  9
$DIMAUNIT
 70
     0
  9
$DIMADEC
 70
     2
  9
$DIMALTRND
 40
0.0
  9
$DIMAZIN
 70
     0
  9
$DIMDSEP
 70
    44
  9
$DIMATFIT
 70
     3
  9
$DIMFRAC
 70
     0
  9
$DIMLDRBLK
  1

  9
$DIMLUNIT
 70
     2
  9
$DIMLWD
 70
    -2
  9
$DIMLWE
 70
    -2
  9
$DIMTMOVE
 70
     0
  9
$LUNITS
 70
     2
  9
$LUPREC
 70
     2
  9
$SKETCHINC
 40
1.0
  9
$FILLETRAD
 40
10.0
  9
$AUNITS
 70
     0
  9
$AUPREC
 70
     2
  9
$MENU
  1
.
  9
$ELEVATION
 40
0.0
  9
$PELEVATION
 40
0.0
  9
$THICKNESS
 40
0.0
  9
$LIMCHECK
 70
     0
  9
$CHAMFERA
 40
0.0
  9
$CHAMFERB
 40
0.0
  9
$CHAMFERC
 40
0.0
  9
$CHAMFERD
 40
0.0
  9
$SKPOLY
 70
     0
  9
$TDCREATE
 40
2459741.588694988
  9
$TDUCREATE
 40
2459741.463694988
  9
$TDUPDATE
 40
2459741.588696968
  9
$TDUUPDATE
 40
2459741.463696968
  9
$TDINDWG
 40
0.0000000116
  9
$TDUSRTIMER
 40
0.0000000116
  9
$USRTIMER
 70
     1
  9
$ANGBASE
 50
0.0
  9
$ANGDIR
 70
     0
  9
$PDMODE
 70
     0
  9
$PDSIZE
 40
-1.0
  9
$PLINEWID
 40
0.0
  9
$SPLFRAME
 70
     0
  9
$SPLINETYPE
 70
     6
  9
$SPLINESEGS
 70
     8
  9
$HANDSEED
  5
170
  9
$SURFTAB1
 70
     6
  9
$SURFTAB2
 70
     6
  9
$SURFTYPE
 70
     6
  9
$SURFU
 70
     6
  9
$SURFV
 70
     6
  9
$UCSBASE
  2

  9
$UCSNAME
  2

  9
$UCSORG
 10
0.0
 20
0.0
 30
0.0
  9
$UCSXDIR
 10
1.0
 20
0.0
 30
0.0
  9
$UCSYDIR
 10
0.0
 20
1.0
 30
0.0
  9
$UCSORTHOREF
  2

  9
$UCSORTHOVIEW
 70
     0
  9
$UCSORGTOP
 10
0.0
 20
0.0
 30
0.0
  9
$UCSORGBOTTOM
 10
0.0
 20
0.0
 30
0.0
  9
$UCSORGLEFT
 10
0.0
 20
0.0
 30
0.0
  9
$UCSORGRIGHT
 10
0.0
 20
0.0
 30
0.0
  9
$UCSORGFRONT
 10
0.0
 20
0.0
 30
0.0
  9
$UCSORGBACK
 10
0.0
 20
0.0
 30
0.0
  9
$PUCSBASE
  2

  9
$PUCSNAME
  2

  9
$PUCSORG
 10
0.0
 20
0.0
 30
0.0
  9
$PUCSXDIR
 10
1.0
 20
0.0
 30
0.0
  9
$PUCSYDIR
 10
0.0
 20
1.0
 30
0.0
  9
$PUCSORTHOREF
  2

  9
$PUCSORTHOVIEW
 70
     0
  9
$PUCSORGTOP
 10
0.0
 20
0.0
 30
0.0
  9
$PUCSORGBOTTOM
 10
0.0
 20
0.0
 30
0.0
  9
$PUCSORGLEFT
 10
0.0
 20
0.0
 30
0.0
  9
$PUCSORGRIGHT
 10
0.0
 20
0.0
 30
0.0
  9
$PUCSORGFRONT
 10
0.0
 20
0.0
 30
0.0
  9
$PUCSORGBACK
 10
0.0
 20
0.0
 30
0.0
  9
$USERI1
 70
     0
  9
$USERI2
 70
     0
  9
$USERI3
 70
     0
  9
$USERI4
 70
     0
  9
$USERI5
 70
     0
  9
$USERR1
 40
0.0
  9
$USERR2
 40
0.0
  9
$USERR3
 40
0.0
  9
$USERR4
 40
0.0
  9
$USERR5
 40
0.0
  9
$WORLDVIEW
 70
     1
  9
$SHADEDGE
 70
     3
  9
$SHADEDIF
 70
    70
  9
$TILEMODE
 70
     1
  9
$MAXACTVP
 70
    64
  9
$PINSBASE
 10
0.0
 20
0.0
 30
0.0
  9
$PLIMCHECK
 70
     0
  9
$PEXTMIN
 10
1.0000000000E+20
 20
1.0000000000E+20
 30
1.0000000000E+20
  9
$PEXTMAX
 10
-1.0000000000E+20
 20
-1.0000000000E+20
 30
-1.0000000000E+20
  9
$PLIMMIN
 10
0.0
 20
0.0
  9
$PLIMMAX
 10
420.0
 20
297.0
  9
$UNITMODE
 70
     0
  9
$VISRETAIN
 70
     1
  9
$PLINEGEN
 70
     0
  9
$PSLTSCALE
 70
     1
  9
$TREEDEPTH
 70
  3020
  9
$CMLSTYLE
  2
Standard
  9
$CMLJUST
 70
     0
  9
$CMLSCALE
 40
20.0
  9
$PROXYGRAPHICS
 70
     1
  9
$MEASUREMENT
 70
     1
  9
$CELWEIGHT
370
    -1
  9
$ENDCAPS
280
     0
  9
$JOINSTYLE
280
     0
  9
$LWDISPLAY
290
     1
  9
$INSUNITS
 70
     4
  9
$HYPERLINKBASE
  1

  9
$STYLESHEET
  1

  9
$XEDIT
290
     1
  9
$CEPSNTYPE
380
     0
  9
$PSTYLEMODE
290
     1
  9
$FINGERPRINTGUID
  2
{c042de5c-e7a6-4a63-8fab-51821d604df0}
  9
$VERSIONGUID
  2
{FAEB1C32-E019-11D5-929B-00C0DF256EC4}
  9
$EXTNAMES
290
     1
  9
$PSVPSCALE
 40
0.0
  9
$OLESTARTUP
290
     0
  0
ENDSEC
  0
SECTION
  2
CLASSES
  0
CLASS
  1
ACDBDICTIONARYWDFLT
  2
AcDbDictionaryWithDefault
  3
ObjectDBX Classes
 90
        0
280
     0
281
     0
  0
CLASS
  1
VISUALSTYLE
  2
AcDbVisualStyle
  3
ObjectDBX Classes
 90
     4095
280
     0
281
     0
  0
CLASS
  1
MATERIAL
  2
AcDbMaterial
  3
ObjectDBX Classes
 90
     1153
280
     0
281
     0
  0
CLASS
  1
SCALE
  2
AcDbScale
  3
ObjectDBX Classes
 90
     1153
280
     0
281
     0
  0
CLASS
  1
TABLESTYLE
  2
AcDbTableStyle
  3
ObjectDBX Classes
 90
     4095
280
     0
281
     0
  0
CLASS
  1
MLEADERSTYLE
  2
AcDbMLeaderStyle
  3
ACDB_MLEADERSTYLE_CLASS
 90
     4095
280
     0
281
     0
  0
CLASS
  1
SUN
  2
AcDbSun
  3
SCENEOE
 90
     1153
280
     0
281
     0
  0
CLASS
  1
ACDBPLACEHOLDER
  2
AcDbPlaceHolder
  3
ObjectDBX Classes
 90
        0
280
     0
281
     0
  0
CLASS
  1
LAYOUT
  2
AcDbLayout
  3
ObjectDBX Classes
 90
        0
280
     0
281
     0
  0
ENDSEC
  0
SECTION
  2
TABLES
  0
TABLE
  2
VPORT
  5
8
330
0
100
AcDbSymbolTable
 70
     1
  0
VPORT
  5
29
330
8
100
AcDbSymbolTableRecord
100
AcDbViewportTableRecord
  2
*Active
 70
     0
 10
0.0
 20
0.0
 11
1.0
 21
1.0
 12
139.7
 22
107.95
 13
0.0
 23
0.0
 14
10.0
 24
10.0
 15
10.0
 25
10.0
 16
0.0
 26
0.0
 36
1.0
 17
0.0
 27
0.0
 37
0.0
 40
215.9
 41
1.2941176471
 42
50.0
 43
0.0
 44
0.0
 50
0.0
 51
0.0
 71
     0
 72
  2000
 73
     1
 74
     3
 75
     0
 76
     0
 77
     0
 78
     0
281
     0
 65
     1
110
0.0
120
0.0
130
0.0
111
1.0
121
0.0
131
0.0
112
0.0
122
1.0
132
0.0
 79
     0
146
0.0
  0
ENDTAB
  0
TABLE
  2
LTYPE
  5
5
330
0
100
AcDbSymbolTable
 70
     6
  0
LTYPE
  5
14
330
5
100
AcDbSymbolTableRecord
100
AcDbLinetypeTableRecord
  2
ByBlock
 70
     0
  3

 72
    65
 73
     0
 40
0.0
  0
LTYPE
  5
15
330
5
100
AcDbSymbolTableRecord
100
AcDbLinetypeTableRecord
  2
ByLayer
 70
     0
  3

 72
    65
 73
     0
 40
0.0
  0
LTYPE
  5
16
330
5
100
AcDbSymbolTableRecord
100
AcDbLinetypeTableRecord
  2
Continuous
 70
     0
  3
Solid line
 72
    65
 73
     0
 40
0.0
  0
LTYPE
  5
6E
330
5
100
AcDbSymbolTableRecord
100
AcDbLinetypeTableRecord
  2
HIDDEN
 70
     0
  3
Hidden __ __ __ __ __ __ __ __ __ __ __ __ __ __
 72
    65
 73
     2
 40
1.905
 49
1.27
 74
     0
 49
-0.635
 74
     0
  0
LTYPE
  5
6F
330
5
100
AcDbSymbolTableRecord
100
AcDbLinetypeTableRecord
  2
PHANTOM
 70
     0
  3
Phantom ______  __  __  ______  __  __  ______
 72
    65
 73
     6
 40
12.7
 49
6.35
 74
     0
 49
-1.27
 74
     0
 49
1.27
 74
     0
 49
-1.27
 74
     0
 49
1.27
 74
     0
 49
-1.27
 74
     0
  0
LTYPE
  5
70
330
5
100
AcDbSymbolTableRecord
100
AcDbLinetypeTableRecord
  2
CENTER
 70
     0
  3
Center ____ _ ____ _ ____ _ ____ _ ____ _ ____
 72
    65
 73
     4
 40
10.16
 49
6.35
 74
     0
 49
-1.27
 74
     0
 49
1.27
 74
     0
 49
-1.27
 74
     0
  0
LTYPE
  5
71
330
5
100
AcDbSymbolTableRecord
100
AcDbLinetypeTableRecord
  2
CENTERX2
 70
     0
  3
Center (2x) ________  __  ________  __  _____
 72
    65
 73
     4
 40
20.32
 49
12.7
 74
     0
 49
-2.54
 74
     0
 49
2.54
 74
     0
 49
-2.54
 74
     0
  0
LTYPE
  5
72
330
5
100
AcDbSymbolTableRecord
100
AcDbLinetypeTableRecord
  2
DOT2
 70
     0
  3
Dot (.5x) ........................................
 72
    65
 73
     2
 40
0.635
 49
0.0
 74
     0
 49
-0.635
 74
     0
  0
ENDTAB
  0
TABLE
  2
LAYER
  5
2
330
0
100
AcDbSymbolTable
 70
    17
  0
LAYER
  5
10
330
2
100
AcDbSymbolTableRecord
100
AcDbLayerTableRecord
  2
0
 70
     0
 62
     7
  6
Continuous
370
    -3
390
F
  0
LAYER
  5
73
330
2
100
AcDbSymbolTableRecord
100
AcDbLayerTableRecord
  2
FORMAT
 70
     0
 62
     7
  6
Continuous
370
    -3
390
F
  0
LAYER
  5
74
330
2
100
AcDbSymbolTableRecord
100
AcDbLayerTableRecord
  2
YARDIMCI_GEOMETRI
 70
     0
 62
    -6
  6
Continuous
290
     0
370
    -3
390
F
  0
LAYER
  5
75
330
2
100
AcDbSymbolTableRecord
100
AcDbLayerTableRecord
  2
SAYFA_CERCEVESI
 70
     0
 62
     7
  6
Continuous
370
    25
390
F
  0
LAYER
  5
76
330
2
100
AcDbSymbolTableRecord
100
AcDbLayerTableRecord
  2
ANTET
 70
     0
 62
     7
  6
Continuous
370
    -3
390
F
  0
LAYER
  5
77
330
2
100
AcDbSymbolTableRecord
100
AcDbLayerTableRecord
  2
OLCU
 70
     0
 62
   150
  6
Continuous
370
    -3
390
F
  0
LAYER
  5
78
330
2
100
AcDbSymbolTableRecord
100
AcDbLayerTableRecord
  2
METIN
 70
     0
 62
    96
  6
Continuous
370
    -3
390
F
  0
LAYER
  5
79
330
2
100
AcDbSymbolTableRecord
100
AcDbLayerTableRecord
  2
BALON
 70
     0
 62
     5
  6
Continuous
370
    -3
390
F
  0
LAYER
  5
7A
330
2
100
AcDbSymbolTableRecord
100
AcDbLayerTableRecord
  2
VURGU
 70
     0
 62
     7
  6
Continuous
370
    -3
390
F
  0
LAYER
  5
7B
330
2
100
AcDbSymbolTableRecord
100
AcDbLayerTableRecord
  2
SILIK
 70
     0
 62
     7
  6
Continuous
370
    -3
390
F
  0
LAYER
  5
7C
330
2
100
AcDbSymbolTableRecord
100
AcDbLayerTableRecord
  2
MODEL
 70
     0
 62
     7
  6
Continuous
370
    -3
390
F
  0
LAYER
  5
7D
330
2
100
AcDbSymbolTableRecord
100
AcDbLayerTableRecord
  2
DETAYLANDıRMA
 70
     0
 62
   190
  6
Continuous
370
    -3
390
F
  0
LAYER
  5
7E
330
2
100
AcDbSymbolTableRecord
100
AcDbLayerTableRecord
  2
TOLERANS
 70
     0
 62
   230
  6
Continuous
370
    -3
390
F
  0
LAYER
  5
7F
330
2
100
AcDbSymbolTableRecord
100
AcDbLayerTableRecord
  2
MERKEZ_CIZGILERI
 70
     0
 62
    30
  6
Continuous
370
    -3
390
F
  0
LAYER
  5
80
330
2
100
AcDbSymbolTableRecord
100
AcDbLayerTableRecord
  2
KESIT-DETAY_CIZGILERI
 70
     0
 62
     7
  6
Continuous
370
    -3
390
F
  0
LAYER
  5
81
330
2
100
AcDbSymbolTableRecord
100
AcDbLayerTableRecord
  2
\U+041E\U+0421\U+0415\U+0412\U+042B\U+0415
 70
     0
 62
     7
  6
Continuous
370
    -3
390
F
  0
LAYER
  5
82
330
2
100
AcDbSymbolTableRecord
100
AcDbLayerTableRecord
  2
\U+0412\U+041E\U+0414\U+042F\U+041D\U+042B\U+0415_\U+0417\U+041D\U+0410\U+041A\U+0418
 70
     0
 62
    11
  6
Continuous
370
    -3
390
F
  0
ENDTAB
  0
TABLE
  2
STYLE
  5
3
330
0
100
AcDbSymbolTable
 70
     1
  0
STYLE
  5
11
330
3
100
AcDbSymbolTableRecord
100
AcDbTextStyleTableRecord
  2
Standard
 70
     0
 40
0.0
 41
1.0
 50
0.0
 71
     0
 42
3.5
  3
txt
  4

  0
ENDTAB
  0
TABLE
  2
VIEW
  5
6
330
0
100
AcDbSymbolTable
 70
     0
  0
ENDTAB
  0
TABLE
  2
UCS
  5
7
330
0
100
AcDbSymbolTable
 70
     0
  0
ENDTAB
  0
TABLE
  2
APPID
  5
9
330
0
100
AcDbSymbolTable
 70
     1
  0
APPID
  5
12
330
9
100
AcDbSymbolTableRecord
100
AcDbRegAppTableRecord
  2
ACAD
 70
     0
  0
ENDTAB
  0
TABLE
  2
DIMSTYLE
  5
A
330
0
100
AcDbSymbolTable
 70
     1
100
AcDbDimStyleTable
  0
DIMSTYLE
105
27
330
A
100
AcDbSymbolTableRecord
100
AcDbDimStyleTableRecord
  2
ISO-25
 70
     0
 41
2.5
 42
0.625
 43
3.75
 44
1.25
 73
     0
 74
     0
 77
     1
 78
     8
140
2.5
141
2.5
143
0.0393700787
147
0.625
171
     3
172
     1
178
     0
271
     2
272
     2
274
     3
278
    44
283
     0
284
     8
340
11
  0
ENDTAB
  0
TABLE
  2
BLOCK_RECORD
  5
1
330
0
100
AcDbSymbolTable
 70
    10
  0
BLOCK_RECORD
  5
1F
330
1
100
AcDbSymbolTableRecord
100
AcDbBlockTableRecord
  2
*Model_Space
340
22
  0
BLOCK_RECORD
  5
1B
330
1
100
AcDbSymbolTableRecord
100
AcDbBlockTableRecord
  2
*Paper_Space
340
1E
  0
BLOCK_RECORD
  5
23
330
1
100
AcDbSymbolTableRecord
100
AcDbBlockTableRecord
  2
*Paper_Space0
340
26
  0
BLOCK_RECORD
  5
97
330
1
100
AcDbSymbolTableRecord
100
AcDbBlockTableRecord
  2
SW_CENTERMARKSYMBOL_0
340
0
102
{BLKREFS
331
A2
102
}
  0
BLOCK_RECORD
  5
A3
330
1
100
AcDbSymbolTableRecord
100
AcDbBlockTableRecord
  2
SW_CENTERMARKSYMBOL_1
340
0
102
{BLKREFS
331
AE
102
}
  0
BLOCK_RECORD
  5
AF
330
1
100
AcDbSymbolTableRecord
100
AcDbBlockTableRecord
  2
SW_CENTERMARKSYMBOL_2
340
0
102
{BLKREFS
331
BA
102
}
  0
BLOCK_RECORD
  5
BB
330
1
100
AcDbSymbolTableRecord
100
AcDbBlockTableRecord
  2
SW_CENTERMARKSYMBOL_3
340
0
102
{BLKREFS
331
C6
102
}
  0
BLOCK_RECORD
  5
C7
330
1
100
AcDbSymbolTableRecord
100
AcDbBlockTableRecord
  2
SW_CENTERMARKSYMBOL_4
340
0
102
{BLKREFS
331
D2
102
}
  0
BLOCK_RECORD
  5
D3
330
1
100
AcDbSymbolTableRecord
100
AcDbBlockTableRecord
  2
SW_CENTERMARKSYMBOL_5
340
0
102
{BLKREFS
331
DE
102
}
  0
BLOCK_RECORD
  5
DF
330
1
100
AcDbSymbolTableRecord
100
AcDbBlockTableRecord
  2
SW_CENTERMARKSYMBOL_6
340
0
102
{BLKREFS
331
EA
102
}
  0
BLOCK_RECORD
  5
EB
330
1
100
AcDbSymbolTableRecord
100
AcDbBlockTableRecord
  2
SW_CENTERMARKSYMBOL_7
340
0
102
{BLKREFS
331
F6
102
}
  0
BLOCK_RECORD
  5
F7
330
1
100
AcDbSymbolTableRecord
100
AcDbBlockTableRecord
  2
SW_CENTERMARKSYMBOL_8
340
0
102
{BLKREFS
331
102
102
}
  0
ENDTAB
  0
ENDSEC
  0
SECTION
  2
BLOCKS
  0
BLOCK
  5
20
330
1F
100
AcDbEntity
  8
0
100
AcDbBlockBegin
  2
*Model_Space
 70
     0
 10
0.0
 20
0.0
 30
0.0
  3
*Model_Space
  1

  0
ENDBLK
  5
21
330
1F
100
AcDbEntity
  8
0
100
AcDbBlockEnd
  0
BLOCK
  5
1C
330
1B
100
AcDbEntity
 67
     1
  8
0
100
AcDbBlockBegin
  2
*Paper_Space
 70
     0
 10
0.0
 20
0.0
 30
0.0
  3
*Paper_Space
  1

  0
ENDBLK
  5
1D
330
1B
100
AcDbEntity
 67
     1
  8
0
100
AcDbBlockEnd
  0
BLOCK
  5
24
330
23
100
AcDbEntity
  8
0
100
AcDbBlockBegin
  2
*Paper_Space0
 70
     0
 10
0.0
 20
0.0
 30
0.0
  3
*Paper_Space0
  1

  0
ENDBLK
  5
25
330
23
100
AcDbEntity
  8
0
100
AcDbBlockEnd
  0
BLOCK
  5
98
330
97
100
AcDbEntity
  8
0
100
AcDbBlockBegin
  2
SW_CENTERMARKSYMBOL_0
 70
     0
 10
0.0
 20
0.0
 30
0.0
  3
SW_CENTERMARKSYMBOL_0
  1

  0
LINE
  5
9A
330
97
100
AcDbEntity
  8
FORMAT
 62
     0
100
AcDbLine
 10
0.0
 20
0.0
 30
0.0
 11
0.0
 21
2.5
 31
0.0
  0
LINE
  5
9B
330
97
100
AcDbEntity
  8
FORMAT
 62
     0
100
AcDbLine
 10
0.0
 20
0.0
 30
0.0
 11
-2.5
 21
0.0
 31
0.0
  0
LINE
  5
9C
330
97
100
AcDbEntity
  8
FORMAT
 62
     0
100
AcDbLine
 10
0.0
 20
0.0
 30
0.0
 11
0.0
 21
-2.5
 31
0.0
  0
LINE
  5
9D
330
97
100
AcDbEntity
  8
FORMAT
 62
     0
100
AcDbLine
 10
0.0
 20
0.0
 30
0.0
 11
2.5
 21
0.0
 31
0.0
  0
LINE
  5
9E
330
97
100
AcDbEntity
  8
FORMAT
 62
     0
100
AcDbLine
 10
0.0
 20
5.0
 30
0.0
 11
0.0
 21
144.0
 31
0.0
  0
LINE
  5
9F
330
97
100
AcDbEntity
  8
FORMAT
 62
     0
100
AcDbLine
 10
-5.0
 20
0.0
 30
0.0
 11
-144.0
 21
0.0
 31
0.0
  0
LINE
  5
A0
330
97
100
AcDbEntity
  8
FORMAT
 62
     0
100
AcDbLine
 10
0.0
 20
-5.0
 30
0.0
 11
0.0
 21
-144.0
 31
0.0
  0
LINE
  5
A1
330
97
100
AcDbEntity
  8
FORMAT
 62
     0
100
AcDbLine
 10
5.0
 20
0.0
 30
0.0
 11
144.0
 21
0.0
 31
0.0
  0
ENDBLK
  5
99
330
97
100
AcDbEntity
  8
0
100
AcDbBlockEnd
  0
BLOCK
  5
A4
330
A3
100
AcDbEntity
  8
0
100
AcDbBlockBegin
  2
SW_CENTERMARKSYMBOL_1
 70
     0
 10
0.0
 20
0.0
 30
0.0
  3
SW_CENTERMARKSYMBOL_1
  1

  0
LINE
  5
A6
330
A3
100
AcDbEntity
  8
FORMAT
 62
     0
100
AcDbLine
 10
0.0
 20
0.0
 30
0.0
 11
0.0
 21
2.5
 31
0.0
  0
LINE
  5
A7
330
A3
100
AcDbEntity
  8
FORMAT
 62
     0
100
AcDbLine
 10
0.0
 20
0.0
 30
0.0
 11
-2.5
 21
0.0
 31
0.0
  0
LINE
  5
A8
330
A3
100
AcDbEntity
  8
FORMAT
 62
     0
100
AcDbLine
 10
0.0
 20
0.0
 30
0.0
 11
0.0
 21
-2.5
 31
0.0
  0
LINE
  5
A9
330
A3
100
AcDbEntity
  8
FORMAT
 62
     0
100
AcDbLine
 10
0.0
 20
0.0
 30
0.0
 11
2.5
 21
0.0
 31
0.0
  0
LINE
  5
AA
330
A3
100
AcDbEntity
  8
FORMAT
 62
     0
100
AcDbLine
 10
0.0
 20
5.0
 30
0.0
 11
0.0
 21
13.5
 31
0.0
  0
LINE
  5
AB
330
A3
100
AcDbEntity
  8
FORMAT
 62
     0
100
AcDbLine
 10
-5.0
 20
0.0
 30
0.0
 11
-13.5
 21
0.0
 31
0.0
  0
LINE
  5
AC
330
A3
100
AcDbEntity
  8
FORMAT
 62
     0
100
AcDbLine
 10
0.0
 20
-5.0
 30
0.0
 11
0.0
 21
-13.5
 31
0.0
  0
LINE
  5
AD
330
A3
100
AcDbEntity
  8
FORMAT
 62
     0
100
AcDbLine
 10
5.0
 20
0.0
 30
0.0
 11
13.5
 21
0.0
 31
0.0
  0
ENDBLK
  5
A5
330
A3
100
AcDbEntity
  8
0
100
AcDbBlockEnd
  0
BLOCK
  5
B0
330
AF
100
AcDbEntity
  8
0
100
AcDbBlockBegin
  2
SW_CENTERMARKSYMBOL_2
 70
     0
 10
0.0
 20
0.0
 30
0.0
  3
SW_CENTERMARKSYMBOL_2
  1

  0
LINE
  5
B2
330
AF
100
AcDbEntity
  8
FORMAT
 62
     0
100
AcDbLine
 10
0.0
 20
0.0
 30
0.0
 11
0.0
 21
2.5
 31
0.0
  0
LINE
  5
B3
330
AF
100
AcDbEntity
  8
FORMAT
 62
     0
100
AcDbLine
 10
0.0
 20
0.0
 30
0.0
 11
-2.5
 21
0.0
 31
0.0
  0
LINE
  5
B4
330
AF
100
AcDbEntity
  8
FORMAT
 62
     0
100
AcDbLine
 10
0.0
 20
0.0
 30
0.0
 11
0.0
 21
-2.5
 31
0.0
  0
LINE
  5
B5
330
AF
100
AcDbEntity
  8
FORMAT
 62
     0
100
AcDbLine
 10
0.0
 20
0.0
 30
0.0
 11
2.5
 21
0.0
 31
0.0
  0
LINE
  5
B6
330
AF
100
AcDbEntity
  8
FORMAT
 62
     0
100
AcDbLine
 10
0.0
 20
5.0
 30
0.0
 11
0.0
 21
13.5
 31
0.0
  0
LINE
  5
B7
330
AF
100
AcDbEntity
  8
FORMAT
 62
     0
100
AcDbLine
 10
-5.0
 20
0.0
 30
0.0
 11
-13.5
 21
0.0
 31
0.0
  0
LINE
  5
B8
330
AF
100
AcDbEntity
  8
FORMAT
 62
     0
100
AcDbLine
 10
0.0
 20
-5.0
 30
0.0
 11
0.0
 21
-13.5
 31
0.0
  0
LINE
  5
B9
330
AF
100
AcDbEntity
  8
FORMAT
 62
     0
100
AcDbLine
 10
5.0
 20
0.0
 30
0.0
 11
13.5
 21
0.0
 31
0.0
  0
ENDBLK
  5
B1
330
AF
100
AcDbEntity
  8
0
100
AcDbBlockEnd
  0
BLOCK
  5
BC
330
BB
100
AcDbEntity
  8
0
100
AcDbBlockBegin
  2
SW_CENTERMARKSYMBOL_3
 70
     0
 10
0.0
 20
0.0
 30
0.0
  3
SW_CENTERMARKSYMBOL_3
  1

  0
LINE
  5
BE
330
BB
100
AcDbEntity
  8
FORMAT
 62
     0
100
AcDbLine
 10
0.0
 20
0.0
 30
0.0
 11
0.0
 21
2.5
 31
0.0
  0
LINE
  5
BF
330
BB
100
AcDbEntity
  8
FORMAT
 62
     0
100
AcDbLine
 10
0.0
 20
0.0
 30
0.0
 11
-2.5
 21
0.0
 31
0.0
  0
LINE
  5
C0
330
BB
100
AcDbEntity
  8
FORMAT
 62
     0
100
AcDbLine
 10
0.0
 20
0.0
 30
0.0
 11
0.0
 21
-2.5
 31
0.0
  0
LINE
  5
C1
330
BB
100
AcDbEntity
  8
FORMAT
 62
     0
100
AcDbLine
 10
0.0
 20
0.0
 30
0.0
 11
2.5
 21
0.0
 31
0.0
  0
LINE
  5
C2
330
BB
100
AcDbEntity
  8
FORMAT
 62
     0
100
AcDbLine
 10
0.0
 20
5.0
 30
0.0
 11
0.0
 21
13.5
 31
0.0
  0
LINE
  5
C3
330
BB
100
AcDbEntity
  8
FORMAT
 62
     0
100
AcDbLine
 10
-5.0
 20
0.0
 30
0.0
 11
-13.5
 21
0.0
 31
0.0
  0
LINE
  5
C4
330
BB
100
AcDbEntity
  8
FORMAT
 62
     0
100
AcDbLine
 10
0.0
 20
-5.0
 30
0.0
 11
0.0
 21
-13.5
 31
0.0
  0
LINE
  5
C5
330
BB
100
AcDbEntity
  8
FORMAT
 62
     0
100
AcDbLine
 10
5.0
 20
0.0
 30
0.0
 11
13.5
 21
0.0
 31
0.0
  0
ENDBLK
  5
BD
330
BB
100
AcDbEntity
  8
0
100
AcDbBlockEnd
  0
BLOCK
  5
C8
330
C7
100
AcDbEntity
  8
0
100
AcDbBlockBegin
  2
SW_CENTERMARKSYMBOL_4
 70
     0
 10
0.0
 20
0.0
 30
0.0
  3
SW_CENTERMARKSYMBOL_4
  1

  0
LINE
  5
CA
330
C7
100
AcDbEntity
  8
FORMAT
 62
     0
100
AcDbLine
 10
0.0
 20
0.0
 30
0.0
 11
0.0
 21
2.5
 31
0.0
  0
LINE
  5
CB
330
C7
100
AcDbEntity
  8
FORMAT
 62
     0
100
AcDbLine
 10
0.0
 20
0.0
 30
0.0
 11
-2.5
 21
0.0
 31
0.0
  0
LINE
  5
CC
330
C7
100
AcDbEntity
  8
FORMAT
 62
     0
100
AcDbLine
 10
0.0
 20
0.0
 30
0.0
 11
0.0
 21
-2.5
 31
0.0
  0
LINE
  5
CD
330
C7
100
AcDbEntity
  8
FORMAT
 62
     0
100
AcDbLine
 10
0.0
 20
0.0
 30
0.0
 11
2.5
 21
0.0
 31
0.0
  0
LINE
  5
CE
330
C7
100
AcDbEntity
  8
FORMAT
 62
     0
100
AcDbLine
 10
0.0
 20
5.0
 30
0.0
 11
0.0
 21
13.5
 31
0.0
  0
LINE
  5
CF
330
C7
100
AcDbEntity
  8
FORMAT
 62
     0
100
AcDbLine
 10
-5.0
 20
0.0
 30
0.0
 11
-13.5
 21
0.0
 31
0.0
  0
LINE
  5
D0
330
C7
100
AcDbEntity
  8
FORMAT
 62
     0
100
AcDbLine
 10
0.0
 20
-5.0
 30
0.0
 11
0.0
 21
-13.5
 31
0.0
  0
LINE
  5
D1
330
C7
100
AcDbEntity
  8
FORMAT
 62
     0
100
AcDbLine
 10
5.0
 20
0.0
 30
0.0
 11
13.5
 21
0.0
 31
0.0
  0
ENDBLK
  5
C9
330
C7
100
AcDbEntity
  8
0
100
AcDbBlockEnd
  0
BLOCK
  5
D4
330
D3
100
AcDbEntity
  8
0
100
AcDbBlockBegin
  2
SW_CENTERMARKSYMBOL_5
 70
     0
 10
0.0
 20
0.0
 30
0.0
  3
SW_CENTERMARKSYMBOL_5
  1

  0
LINE
  5
D6
330
D3
100
AcDbEntity
  8
FORMAT
 62
     0
100
AcDbLine
 10
0.0
 20
0.0
 30
0.0
 11
0.0
 21
2.5
 31
0.0
  0
LINE
  5
D7
330
D3
100
AcDbEntity
  8
FORMAT
 62
     0
100
AcDbLine
 10
0.0
 20
0.0
 30
0.0
 11
-2.5
 21
0.0
 31
0.0
  0
LINE
  5
D8
330
D3
100
AcDbEntity
  8
FORMAT
 62
     0
100
AcDbLine
 10
0.0
 20
0.0
 30
0.0
 11
0.0
 21
-2.5
 31
0.0
  0
LINE
  5
D9
330
D3
100
AcDbEntity
  8
FORMAT
 62
     0
100
AcDbLine
 10
0.0
 20
0.0
 30
0.0
 11
2.5
 21
0.0
 31
0.0
  0
LINE
  5
DA
330
D3
100
AcDbEntity
  8
FORMAT
 62
     0
100
AcDbLine
 10
0.0
 20
5.0
 30
0.0
 11
0.0
 21
14.5
 31
0.0
  0
LINE
  5
DB
330
D3
100
AcDbEntity
  8
FORMAT
 62
     0
100
AcDbLine
 10
-5.0
 20
0.0
 30
0.0
 11
-14.5
 21
0.0
 31
0.0
  0
LINE
  5
DC
330
D3
100
AcDbEntity
  8
FORMAT
 62
     0
100
AcDbLine
 10
0.0
 20
-5.0
 30
0.0
 11
0.0
 21
-14.5
 31
0.0
  0
LINE
  5
DD
330
D3
100
AcDbEntity
  8
FORMAT
 62
     0
100
AcDbLine
 10
5.0
 20
0.0
 30
0.0
 11
14.5
 21
0.0
 31
0.0
  0
ENDBLK
  5
D5
330
D3
100
AcDbEntity
  8
0
100
AcDbBlockEnd
  0
BLOCK
  5
E0
330
DF
100
AcDbEntity
  8
0
100
AcDbBlockBegin
  2
SW_CENTERMARKSYMBOL_6
 70
     0
 10
0.0
 20
0.0
 30
0.0
  3
SW_CENTERMARKSYMBOL_6
  1

  0
LINE
  5
E2
330
DF
100
AcDbEntity
  8
FORMAT
 62
     0
100
AcDbLine
 10
0.0
 20
0.0
 30
0.0
 11
0.0
 21
2.5
 31
0.0
  0
LINE
  5
E3
330
DF
100
AcDbEntity
  8
FORMAT
 62
     0
100
AcDbLine
 10
0.0
 20
0.0
 30
0.0
 11
-2.5
 21
0.0
 31
0.0
  0
LINE
  5
E4
330
DF
100
AcDbEntity
  8
FORMAT
 62
     0
100
AcDbLine
 10
0.0
 20
0.0
 30
0.0
 11
0.0
 21
-2.5
 31
0.0
  0
LINE
  5
E5
330
DF
100
AcDbEntity
  8
FORMAT
 62
     0
100
AcDbLine
 10
0.0
 20
0.0
 30
0.0
 11
2.5
 21
0.0
 31
0.0
  0
LINE
  5
E6
330
DF
100
AcDbEntity
  8
FORMAT
 62
     0
100
AcDbLine
 10
0.0
 20
5.0
 30
0.0
 11
0.0
 21
14.5
 31
0.0
  0
LINE
  5
E7
330
DF
100
AcDbEntity
  8
FORMAT
 62
     0
100
AcDbLine
 10
-5.0
 20
0.0
 30
0.0
 11
-14.5
 21
0.0
 31
0.0
  0
LINE
  5
E8
330
DF
100
AcDbEntity
  8
FORMAT
 62
     0
100
AcDbLine
 10
0.0
 20
-5.0
 30
0.0
 11
0.0
 21
-14.5
 31
0.0
  0
LINE
  5
E9
330
DF
100
AcDbEntity
  8
FORMAT
 62
     0
100
AcDbLine
 10
5.0
 20
0.0
 30
0.0
 11
14.5
 21
0.0
 31
0.0
  0
ENDBLK
  5
E1
330
DF
100
AcDbEntity
  8
0
100
AcDbBlockEnd
  0
BLOCK
  5
EC
330
EB
100
AcDbEntity
  8
0
100
AcDbBlockBegin
  2
SW_CENTERMARKSYMBOL_7
 70
     0
 10
0.0
 20
0.0
 30
0.0
  3
SW_CENTERMARKSYMBOL_7
  1

  0
LINE
  5
EE
330
EB
100
AcDbEntity
  8
FORMAT
 62
     0
100
AcDbLine
 10
0.0
 20
0.0
 30
0.0
 11
0.0
 21
2.5
 31
0.0
  0
LINE
  5
EF
330
EB
100
AcDbEntity
  8
FORMAT
 62
     0
100
AcDbLine
 10
0.0
 20
0.0
 30
0.0
 11
-2.5
 21
0.0
 31
0.0
  0
LINE
  5
F0
330
EB
100
AcDbEntity
  8
FORMAT
 62
     0
100
AcDbLine
 10
0.0
 20
0.0
 30
0.0
 11
0.0
 21
-2.5
 31
0.0
  0
LINE
  5
F1
330
EB
100
AcDbEntity
  8
FORMAT
 62
     0
100
AcDbLine
 10
0.0
 20
0.0
 30
0.0
 11
2.5
 21
0.0
 31
0.0
  0
LINE
  5
F2
330
EB
100
AcDbEntity
  8
FORMAT
 62
     0
100
AcDbLine
 10
0.0
 20
5.0
 30
0.0
 11
0.0
 21
14.5
 31
0.0
  0
LINE
  5
F3
330
EB
100
AcDbEntity
  8
FORMAT
 62
     0
100
AcDbLine
 10
-5.0
 20
0.0
 30
0.0
 11
-14.5
 21
0.0
 31
0.0
  0
LINE
  5
F4
330
EB
100
AcDbEntity
  8
FORMAT
 62
     0
100
AcDbLine
 10
0.0
 20
-5.0
 30
0.0
 11
0.0
 21
-14.5
 31
0.0
  0
LINE
  5
F5
330
EB
100
AcDbEntity
  8
FORMAT
 62
     0
100
AcDbLine
 10
5.0
 20
0.0
 30
0.0
 11
14.5
 21
0.0
 31
0.0
  0
ENDBLK
  5
ED
330
EB
100
AcDbEntity
  8
0
100
AcDbBlockEnd
  0
BLOCK
  5
F8
330
F7
100
AcDbEntity
  8
0
100
AcDbBlockBegin
  2
SW_CENTERMARKSYMBOL_8
 70
     0
 10
0.0
 20
0.0
 30
0.0
  3
SW_CENTERMARKSYMBOL_8
  1

  0
LINE
  5
FA
330
F7
100
AcDbEntity
  8
FORMAT
 62
     0
100
AcDbLine
 10
0.0
 20
0.0
 30
0.0
 11
0.0
 21
2.5
 31
0.0
  0
LINE
  5
FB
330
F7
100
AcDbEntity
  8
FORMAT
 62
     0
100
AcDbLine
 10
0.0
 20
0.0
 30
0.0
 11
-2.5
 21
0.0
 31
0.0
  0
LINE
  5
FC
330
F7
100
AcDbEntity
  8
FORMAT
 62
     0
100
AcDbLine
 10
0.0
 20
0.0
 30
0.0
 11
0.0
 21
-2.5
 31
0.0
  0
LINE
  5
FD
330
F7
100
AcDbEntity
  8
FORMAT
 62
     0
100
AcDbLine
 10
0.0
 20
0.0
 30
0.0
 11
2.5
 21
0.0
 31
0.0
  0
LINE
  5
FE
330
F7
100
AcDbEntity
  8
FORMAT
 62
     0
100
AcDbLine
 10
0.0
 20
5.0
 30
0.0
 11
0.0
 21
14.5
 31
0.0
  0
LINE
  5
FF
330
F7
100
AcDbEntity
  8
FORMAT
 62
     0
100
AcDbLine
 10
-5.0
 20
0.0
 30
0.0
 11
-14.5
 21
0.0
 31
0.0
  0
LINE
  5
100
330
F7
100
AcDbEntity
  8
FORMAT
 62
     0
100
AcDbLine
 10
0.0
 20
-5.0
 30
0.0
 11
0.0
 21
-14.5
 31
0.0
  0
LINE
  5
101
330
F7
100
AcDbEntity
  8
FORMAT
 62
     0
100
AcDbLine
 10
5.0
 20
0.0
 30
0.0
 11
14.5
 21
0.0
 31
0.0
  0
ENDBLK
  5
F9
330
F7
100
AcDbEntity
  8
0
100
AcDbBlockEnd
  0
ENDSEC
  0
SECTION
  2
ENTITIES
  0
CIRCLE
  5
83
330
1F
100
AcDbEntity
  8
0
  6
Continuous
 62
     7
370
    25
100
AcDbCircle
 10
14.4605938204
 20
115.6909958732
 30
0.0
 40
11.99999999999999
  0
CIRCLE
  5
84
330
1F
100
AcDbEntity
  8
0
  6
Continuous
 62
     7
370
    25
100
AcDbCircle
 10
220.4230269706
 20
30.3785627231
 30
0.0
 40
12.0
  0
CIRCLE
  5
85
330
1F
100
AcDbEntity
  8
0
  6
Continuous
 62
     7
370
    25
100
AcDbCircle
 10
220.4230269706
 20
201.0034290234
 30
0.0
 40
12.0
  0
CIRCLE
  5
86
330
1F
100
AcDbEntity
  8
0
  6
Continuous
 62
     7
370
    25
100
AcDbCircle
 10
135.1105938204
 20
236.3409958732
 30
0.0
 40
11.99999999999997
  0
CIRCLE
  5
87
330
1F
100
AcDbEntity
  8
0
  6
Continuous
 62
     7
370
    25
100
AcDbCircle
 10
135.1105938204
 20
115.6909958732
 30
0.0
 40
140.5
  0
CIRCLE
  5
88
330
1F
100
AcDbEntity
  8
0
  6
Continuous
 62
     7
370
    25
100
AcDbCircle
 10
135.1105938204
 20
115.6909958732
 30
0.0
 40
90.0
  0
CIRCLE
  5
89
330
1F
100
AcDbEntity
  8
0
  6
Continuous
 62
     7
370
    25
100
AcDbCircle
 10
135.1105938204
 20
-4.9590041268
 30
0.0
 40
12.0
  0
CIRCLE
  5
8A
330
1F
100
AcDbEntity
  8
0
  6
Continuous
 62
     7
370
    25
100
AcDbCircle
 10
255.7605938204
 20
115.6909958732
 30
0.0
 40
12.0
  0
CIRCLE
  5
8B
330
1F
100
AcDbEntity
  8
0
  6
Continuous
 62
     7
370
    25
100
AcDbCircle
 10
49.7981606702
 20
30.3785627231
 30
0.0
 40
12.0
  0
CIRCLE
  5
8C
330
1F
100
AcDbEntity
  8
0
  6
Continuous
 62
     7
370
    25
100
AcDbCircle
 10
49.7981606703
 20
201.0034290234
 30
0.0
 40
11.99999999999999
  0
CIRCLE
  5
8D
330
1F
100
AcDbEntity
  8
0
  6
Continuous
 62
     7
370
    25
100
AcDbCircle
 10
135.1105938204
 20
-4.9590041268
 30
0.0
 40
11.0
  0
CIRCLE
  5
8E
330
1F
100
AcDbEntity
  8
0
  6
Continuous
 62
     7
370
    25
100
AcDbCircle
 10
135.1105938204
 20
115.6909958732
 30
0.0
 40
89.0
  0
CIRCLE
  5
8F
330
1F
100
AcDbEntity
  8
0
  6
Continuous
 62
     7
370
    25
100
AcDbCircle
 10
135.1105938204
 20
115.6909958732
 30
0.0
 40
141.5
  0
CIRCLE
  5
90
330
1F
100
AcDbEntity
  8
0
  6
Continuous
 62
     7
370
    25
100
AcDbCircle
 10
135.1105938204
 20
236.3409958732
 30
0.0
 40
11.0
  0
CIRCLE
  5
91
330
1F
100
AcDbEntity
  8
0
  6
Continuous
 62
     7
370
    25
100
AcDbCircle
 10
220.4230269706
 20
201.0034290234
 30
0.0
 40
11.0
  0
CIRCLE
  5
92
330
1F
100
AcDbEntity
  8
0
  6
Continuous
 62
     7
370
    25
100
AcDbCircle
 10
49.7981606703
 20
201.0034290234
 30
0.0
 40
11.0
  0
CIRCLE
  5
93
330
1F
100
AcDbEntity
  8
0
  6
Continuous
 62
     7
370
    25
100
AcDbCircle
 10
49.7981606702
 20
30.3785627231
 30
0.0
 40
10.99999999999999
  0
CIRCLE
  5
94
330
1F
100
AcDbEntity
  8
0
  6
Continuous
 62
     7
370
    25
100
AcDbCircle
 10
255.7605938204
 20
115.6909958732
 30
0.0
 40
11.0
  0
CIRCLE
  5
95
330
1F
100
AcDbEntity
  8
0
  6
Continuous
 62
     7
370
    25
100
AcDbCircle
 10
14.4605938204
 20
115.6909958732
 30
0.0
 40
10.99999999999999
  0
CIRCLE
  5
96
330
1F
100
AcDbEntity
  8
0
  6
Continuous
 62
     7
370
    25
100
AcDbCircle
 10
220.4230269706
 20
30.3785627231
 30
0.0
 40
11.0
  0
INSERT
  5
A2
330
1F
100
AcDbEntity
  8
FORMAT
 62
     7
100
AcDbBlockReference
  2
SW_CENTERMARKSYMBOL_0
 10
135.1105938204
 20
115.6909958732
 30
0.0
  0
INSERT
  5
AE
330
1F
100
AcDbEntity
  8
FORMAT
 62
     7
100
AcDbBlockReference
  2
SW_CENTERMARKSYMBOL_1
 10
135.1105938204
 20
236.3409958732
 30
0.0
  0
INSERT
  5
BA
330
1F
100
AcDbEntity
  8
FORMAT
 62
     7
100
AcDbBlockReference
  2
SW_CENTERMARKSYMBOL_2
 10
220.4230269706
 20
201.0034290234
 30
0.0
  0
INSERT
  5
C6
330
1F
100
AcDbEntity
  8
FORMAT
 62
     7
100
AcDbBlockReference
  2
SW_CENTERMARKSYMBOL_3
 10
255.7605938204
 20
115.6909958732
 30
0.0
  0
INSERT
  5
D2
330
1F
100
AcDbEntity
  8
FORMAT
 62
     7
100
AcDbBlockReference
  2
SW_CENTERMARKSYMBOL_4
 10
220.4230269706
 20
30.3785627231
 30
0.0
  0
INSERT
  5
DE
330
1F
100
AcDbEntity
  8
FORMAT
 62
     7
100
AcDbBlockReference
  2
SW_CENTERMARKSYMBOL_5
 10
49.7981606703
 20
201.0034290234
 30
0.0
  0
INSERT
  5
EA
330
1F
100
AcDbEntity
  8
FORMAT
 62
     7
100
AcDbBlockReference
  2
SW_CENTERMARKSYMBOL_6
 10
14.4605938204
 20
115.6909958732
 30
0.0
  0
INSERT
  5
F6
330
1F
100
AcDbEntity
  8
FORMAT
 62
     7
100
AcDbBlockReference
  2
SW_CENTERMARKSYMBOL_7
 10
49.7981606702
 20
30.3785627231
 30
0.0
  0
INSERT
  5
102
330
1F
100
AcDbEntity
  8
FORMAT
 62
     7
100
AcDbBlockReference
  2
SW_CENTERMARKSYMBOL_8
 10
135.1105938204
 20
-4.9590041268
 30
0.0
  0
LINE
  5
103
330
1F
100
AcDbEntity
  8
0
  6
Continuous
 62
     7
370
    25
100
AcDbLine
 10
-121.5238550441
 20
257.1909958732
 30
0.0
 11
-143.5238550441
 21
257.1909958732
 31
0.0
  0
LINE
  5
104
330
1F
100
AcDbEntity
  8
0
  6
Continuous
 62
     7
370
    25
100
AcDbLine
 10
-143.5238550441
 20
-25.8090041268
 30
0.0
 11
-121.5238550441
 21
-25.8090041268
 31
0.0
  0
ARC
  5
105
330
1F
100
AcDbEntity
  8
0
  6
Continuous
 62
     7
370
    25
100
AcDbCircle
 10
-121.5238550441
 20
-24.8090041268
 30
0.0
 40
1.0
100
AcDbArc
 50
270.0
 51
0.0
  0
ARC
  5
106
330
1F
100
AcDbEntity
  8
0
  6
Continuous
 62
     7
370
    25
100
AcDbCircle
 10
-121.5238550441
 20
256.1909958732
 30
0.0
 40
1.0
100
AcDbArc
 50
0.0
 51
90.0
  0
ARC
  5
107
330
1F
100
AcDbEntity
  8
0
  6
Continuous
 62
     7
370
    25
100
AcDbCircle
 10
-143.5238550441
 20
-24.8090041268
 30
0.0
 40
1.0
100
AcDbArc
 50
180.0
 51
270.0
  0
ARC
  5
108
330
1F
100
AcDbEntity
  8
0
  6
Continuous
 62
     7
370
    25
100
AcDbCircle
 10
-143.5238550441
 20
256.1909958732
 30
0.0
 40
1.0
100
AcDbArc
 50
90.0
 51
180.0
  0
LINE
  5
109
330
1F
100
AcDbEntity
  8
0
  6
Continuous
 62
     7
370
    25
100
AcDbLine
 10
-120.5238550441
 20
115.6909958732
 30
0.0
 11
-120.5238550441
 21
-24.8090041268
 31
0.0
  0
LINE
  5
10A
330
1F
100
AcDbEntity
  8
0
  6
Continuous
 62
     7
370
    25
100
AcDbLine
 10
-120.5238550441
 20
256.1909958732
 30
0.0
 11
-120.5238550441
 21
115.6909958732
 31
0.0
  0
LINE
  5
10B
330
1F
100
AcDbEntity
  8
0
  6
Continuous
 62
     7
370
    25
100
AcDbLine
 10
-144.5238550441
 20
115.6909958732
 30
0.0
 11
-144.5238550441
 21
256.1909958732
 31
0.0
  0
LINE
  5
10C
330
1F
100
AcDbEntity
  8
0
  6
Continuous
 62
     7
370
    25
100
AcDbLine
 10
-144.5238550441
 20
-24.8090041268
 30
0.0
 11
-144.5238550441
 21
115.6909958732
 31
0.0
  0
LINE
  5
10D
330
1F
100
AcDbEntity
  8
0
  6
Continuous
 62
     1
370
    25
100
AcDbLine
 10
-143.5238550441
 20
115.6909958732
 30
0.0
 11
-143.5238550441
 21
-25.8090041268
 31
0.0
  0
LINE
  5
10E
330
1F
100
AcDbEntity
  8
0
  6
Continuous
 62
     1
370
    25
100
AcDbLine
 10
-143.5238550441
 20
257.1909958732
 30
0.0
 11
-143.5238550441
 21
115.6909958732
 31
0.0
  0
LINE
  5
10F
330
1F
100
AcDbEntity
  8
0
  6
Continuous
 62
     1
370
    25
100
AcDbLine
 10
-121.5238550441
 20
115.6909958732
 30
0.0
 11
-121.5238550441
 21
257.1909958732
 31
0.0
  0
LINE
  5
110
330
1F
100
AcDbEntity
  8
0
  6
Continuous
 62
     1
370
    25
100
AcDbLine
 10
-121.5238550441
 20
-25.8090041268
 30
0.0
 11
-121.5238550441
 21
115.6909958732
 31
0.0
  0
LINE
  5
111
330
1F
100
AcDbEntity
  8
0
  6
Continuous
 62
     7
370
    25
100
AcDbLine
 10
427.5111882679
 20
-25.8090041268
 30
0.0
 11
449.5111882679
 21
-25.8090041268
 31
0.0
  0
LINE
  5
112
330
1F
100
AcDbEntity
  8
0
  6
Continuous
 62
     7
370
    25
100
AcDbLine
 10
449.5111882679
 20
257.1909958732
 30
0.0
 11
427.5111882679
 21
257.1909958732
 31
0.0
  0
ARC
  5
113
330
1F
100
AcDbEntity
  8
0
  6
Continuous
 62
     7
370
    25
100
AcDbCircle
 10
427.5111882679
 20
256.1909958732
 30
0.0
 40
1.0
100
AcDbArc
 50
90.0
 51
180.0
  0
ARC
  5
114
330
1F
100
AcDbEntity
  8
0
  6
Continuous
 62
     7
370
    25
100
AcDbCircle
 10
427.5111882679
 20
-24.8090041268
 30
0.0
 40
1.0
100
AcDbArc
 50
180.0
 51
270.0
  0
ARC
  5
115
330
1F
100
AcDbEntity
  8
0
  6
Continuous
 62
     7
370
    25
100
AcDbCircle
 10
449.5111882679
 20
256.1909958732
 30
0.0
 40
1.0
100
AcDbArc
 50
0.0
 51
90.0
  0
ARC
  5
116
330
1F
100
AcDbEntity
  8
0
  6
Continuous
 62
     7
370
    25
100
AcDbCircle
 10
449.5111882679
 20
-24.8090041268
 30
0.0
 40
1.0
100
AcDbArc
 50
270.0
 51
0.0
  0
LINE
  5
117
330
1F
100
AcDbEntity
  8
0
  6
Continuous
 62
     7
370
    25
100
AcDbLine
 10
426.5111882679
 20
-24.8090041268
 30
0.0
 11
426.5111882679
 21
256.1909958732
 31
0.0
  0
LINE
  5
118
330
1F
100
AcDbEntity
  8
0
  6
Continuous
 62
     7
370
    25
100
AcDbLine
 10
450.5111882679
 20
256.1909958732
 30
0.0
 11
450.5111882679
 21
-24.8090041268
 31
0.0
  0
LINE
  5
119
330
1F
100
AcDbEntity
  8
0
  6
Continuous
 62
     1
370
    25
100
AcDbLine
 10
449.5111882679
 20
-25.8090041268
 30
0.0
 11
449.5111882679
 21
257.1909958732
 31
0.0
  0
LINE
  5
11A
330
1F
100
AcDbEntity
  8
0
  6
Continuous
 62
     1
370
    25
100
AcDbLine
 10
427.5111882679
 20
257.1909958732
 30
0.0
 11
427.5111882679
 21
-25.8090041268
 31
0.0
  0
LINE
  5
11B
330
1F
100
AcDbEntity
  8
0
  6
Continuous
 62
     7
370
    25
100
AcDbLine
 10
276.6105938204
 20
335.8686404001
 30
0.0
 11
276.6105938204
 21
357.8686404001
 31
0.0
  0
LINE
  5
11C
330
1F
100
AcDbEntity
  8
0
  6
Continuous
 62
     7
370
    25
100
AcDbLine
 10
-6.3894061796
 20
357.8686404001
 30
0.0
 11
-6.3894061796
 21
335.8686404001
 31
0.0
  0
ARC
  5
11D
330
1F
100
AcDbEntity
  8
0
  6
Continuous
 62
     7
370
    25
100
AcDbCircle
 10
-5.3894061796
 20
335.8686404001
 30
0.0
 40
1.000000000000001
100
AcDbArc
 50
180.0
 51
270.0
  0
ARC
  5
11E
330
1F
100
AcDbEntity
  8
0
  6
Continuous
 62
     7
370
    25
100
AcDbCircle
 10
275.6105938204
 20
335.8686404001
 30
0.0
 40
1.0
100
AcDbArc
 50
270.0
 51
0.0
  0
ARC
  5
11F
330
1F
100
AcDbEntity
  8
0
  6
Continuous
 62
     7
370
    25
100
AcDbCircle
 10
-5.3894061796
 20
357.8686404001
 30
0.0
 40
1.000000000000001
100
AcDbArc
 50
90.0
 51
180.0
  0
ARC
  5
120
330
1F
100
AcDbEntity
  8
0
  6
Continuous
 62
     7
370
    25
100
AcDbCircle
 10
275.6105938204
 20
357.8686404001
 30
0.0
 40
1.0
100
AcDbArc
 50
0.0
 51
90.0
  0
LINE
  5
121
330
1F
100
AcDbEntity
  8
0
  6
Continuous
 62
     7
370
    25
100
AcDbLine
 10
275.6105938204
 20
334.8686404001
 30
0.0
 11
-5.3894061796
 21
334.8686404001
 31
0.0
  0
LINE
  5
122
330
1F
100
AcDbEntity
  8
0
  6
Continuous
 62
     7
370
    25
100
AcDbLine
 10
-5.3894061791
 20
358.8686404001
 30
0.0
 11
275.6105938204
 21
358.8686404001
 31
0.0
  0
LINE
  5
123
330
1F
100
AcDbEntity
  8
0
  6
Continuous
 62
     1
370
    25
100
AcDbLine
 10
276.6105938204
 20
357.8686404001
 30
0.0
 11
-6.3894061796
 21
357.8686404001
 31
0.0
  0
LINE
  5
124
330
1F
100
AcDbEntity
  8
0
  6
Continuous
 62
     1
370
    25
100
AcDbLine
 10
-6.3894061796
 20
335.8686404001
 30
0.0
 11
276.6105938204
 21
335.8686404001
 31
0.0
  0
LINE
  5
125
330
1F
100
AcDbEntity
  8
0
  6
Continuous
 62
     7
370
    25
100
AcDbLine
 10
-6.3894061796
 20
-225.7295645756
 30
0.0
 11
-6.3894061796
 21
-247.7295645756
 31
0.0
  0
LINE
  5
126
330
1F
100
AcDbEntity
  8
0
  6
Continuous
 62
     7
370
    25
100
AcDbLine
 10
276.6105938204
 20
-247.7295645756
 30
0.0
 11
276.6105938204
 21
-225.7295645756
 31
0.0
  0
ARC
  5
127
330
1F
100
AcDbEntity
  8
0
  6
Continuous
 62
     7
370
    25
100
AcDbCircle
 10
275.6105938204
 20
-225.7295645756
 30
0.0
 40
1.0
100
AcDbArc
 50
0.0
 51
90.0
  0
ARC
  5
128
330
1F
100
AcDbEntity
  8
0
  6
Continuous
 62
     7
370
    25
100
AcDbCircle
 10
-5.3894061796
 20
-225.7295645756
 30
0.0
 40
1.000000000000001
100
AcDbArc
 50
90.0
 51
180.0
  0
ARC
  5
129
330
1F
100
AcDbEntity
  8
0
  6
Continuous
 62
     7
370
    25
100
AcDbCircle
 10
275.6105938204
 20
-247.7295645756
 30
0.0
 40
1.0
100
AcDbArc
 50
270.0
 51
0.0
  0
ARC
  5
12A
330
1F
100
AcDbEntity
  8
0
  6
Continuous
 62
     7
370
    25
100
AcDbCircle
 10
-5.3894061796
 20
-247.7295645756
 30
0.0
 40
1.000000000000001
100
AcDbArc
 50
180.0
 51
270.0
  0
LINE
  5
12B
330
1F
100
AcDbEntity
  8
0
  6
Continuous
 62
     7
370
    25
100
AcDbLine
 10
-5.3894061791
 20
-224.7295645756
 30
0.0
 11
275.6105938204
 21
-224.7295645756
 31
0.0
  0
LINE
  5
12C
330
1F
100
AcDbEntity
  8
0
  6
Continuous
 62
     7
370
    25
100
AcDbLine
 10
275.6105938204
 20
-248.7295645756
 30
0.0
 11
-5.3894061796
 21
-248.7295645756
 31
0.0
  0
LINE
  5
12D
330
1F
100
AcDbEntity
  8
0
  6
Continuous
 62
     1
370
    25
100
AcDbLine
 10
-6.3894061796
 20
-247.7295645756
 30
0.0
 11
276.6105938204
 21
-247.7295645756
 31
0.0
  0
LINE
  5
12E
330
1F
100
AcDbEntity
  8
0
  6
Continuous
 62
     1
370
    25
100
AcDbLine
 10
276.6105938204
 20
-225.7295645756
 30
0.0
 11
-6.3894061796
 21
-225.7295645756
 31
0.0
  0
SPLINE
  5
12F
330
1F
100
AcDbEntity
  8
0
  6
Continuous
 62
     7
370
    25
100
AcDbSpline
210
0.0
220
0.0
230
1.0
 70
     8
 71
     3
 72
    74
 73
    70
 74
     0
 42
0.00000001
 43
0.00000001
 40
0.0
 40
0.0
 40
0.0
 40
0.0
 40
0.000496085938931
 40
0.0156631798886382
 40
0.0308421655222002
 40
0.0460336195223974
 40
0.0612373569995179
 40
0.0764525892071349
 40
0.0916781081017896
 40
0.1069124663555149
 40
0.1221541315518464
 40
0.1374016041483552
 40
0.1526534976673763
 40
0.1679085853560605
 40
0.1831658203440175
 40
0.1984243368733786
 40
0.2136834393789991
 40
0.2289424674426798
 40
0.2442010160905081
 40
0.2594588182599438
 40
0.2747156922964982
 40
0.2899715252895277
 40
0.3052262588443272
 40
0.3204798772209833
 40
0.3357323976339899
 40
0.3509838624445972
 40
0.3662343329636844
 40
0.3814838845960474
 40
0.396732603083688
 40
0.4119805816375472
 40
0.4272279187792687
 40
0.4424747167443077
 40
0.4577210803236729
 40
0.4729671160435623
 40
0.488212931599966
 40
0.503458635479348
 40
0.5187043367071118
 40
0.5339501214226795
 40
0.5491960860676488
 40
0.5644423403963913
 40
0.579688994088316
 40
0.5949361564593904
 40
0.61018393602943
 40
0.6254324398810653
 40
0.6406817727362797
 40
0.6559320356607483
 40
0.6711833242865582
 40
0.6864357264199124
 40
0.7016893188722695
 40
0.716944163321376
 40
0.7322003009746837
 40
0.7474577457743975
 40
0.7627164758571454
 40
0.7779764229712663
 40
0.7932374595765049
 40
0.8084993834279387
 40
0.8237618996114497
 40
0.8390245169805197
 40
0.8542865640372315
 40
0.8695472861153589
 40
0.8848057477334444
 40
0.9000608228781712
 40
0.9153111992015471
 40
0.9305554034273608
 40
0.9457918559011244
 40
0.9610189612313362
 40
0.976235238414095
 40
0.991439486998085
 40
0.9999999999999999
 40
0.9999999999999999
 40
0.9999999999999999
 40
0.9999999999999999
 10
524.6112869208521
 20
-65.24988041763513
 30
0.0
 10
524.5736932675609
 20
-65.24117167856721
 30
0.0
 10
523.386729259993
 20
-64.96620612135298
 30
0.0
 10
520.9609690323778
 20
-64.63140462437505
 30
0.0
 10
517.3334821876351
 20
-64.26457845563432
 30
0.0
 10
513.6098064117585
 20
-64.14998278355213
 30
0.0
 10
509.8108410036136
 20
-64.25466601017213
 30
0.0
 10
505.9394146937677
 20
-64.58755452228901
 30
0.0
 10
502.0034525414371
 20
-65.1457869617722
 30
0.0
 10
498.0097159680558
 20
-65.9290965722335
 30
0.0
 10
493.9654357346161
 20
-66.9359516157321
 30
0.0
 10
489.8778312355878
 20
-68.16459941262012
 30
0.0
 10
485.7542029921296
 20
-69.61280189538694
 30
0.0
 10
481.6018784626727
 20
-71.27792555152354
 30
0.0
 10
477.4282036574446
 20
-73.15693727728451
 30
0.0
 10
473.2405276633793
 20
-75.24642475274807
 30
0.0
 10
469.0462035102411
 20
-77.54260281655576
 30
0.0
 10
464.8525677781382
 20
-80.04132999653658
 30
0.0
 10
460.6669297610927
 20
-82.73812131017965
 30
0.0
 10
456.496553261067
 20
-85.62816700877903
 30
0.0
 10
452.3486603065797
 20
-88.70633587959308
 30
0.0
 10
448.230425474214
 20
-91.96718224468958
 30
0.0
 10
444.148966596191
 20
-95.40495482833894
 30
0.0
 10
440.1113349637509
 20
-99.01360585310714
 30
0.0
 10
436.1245050981421
 20
-102.7868005010159
 30
0.0
 10
432.1953641788259
 20
-106.7179268320286
 30
0.0
 10
428.3307012241258
 20
-110.8001062155458
 30
0.0
 10
424.5371961172987
 20
-115.0262043028149
 30
0.0
 10
420.8214085645903
 20
-119.388842547465
 30
0.0
 10
417.1897670635705
 20
-123.8804102664643
 30
0.0
 10
413.648557951357
 20
-128.4930772232944
 30
0.0
 10
410.2039145940402
 20
-133.2188067079059
 30
0.0
 10
406.86180677113
 20
-138.0493690831455
 30
0.0
 10
403.6280303023304
 20
-142.9763557640609
 30
0.0
 10
400.5081969583324
 20
-147.9911935944068
 30
0.0
 10
397.5077246928551
 20
-153.0851595827625
 30
0.0
 10
394.6318296904387
 20
-158.2493933357868
 30
0.0
 10
391.8855163705711
 20
-163.4749133757577
 30
0.0
 10
389.2735677652474
 20
-168.7526342339571
 30
0.0
 10
386.8005361430723
 20
-174.0733850640768
 30
0.0
 10
384.4707361279509
 20
-179.4279245526829
 30
0.0
 10
382.2882382512091
 20
-184.8069554748766
 30
0.0
 10
380.2568622089053
 20
-190.2011408252802
 30
0.0
 10
378.3801706324548
 20
-195.6011199672303
 30
0.0
 10
376.661463385689
 20
-200.9975247458238
 30
0.0
 10
375.1037723971164
 20
-206.3809955064761
 30
0.0
 10
373.7098570306322
 20
-211.7421969555706
 30
0.0
 10
372.4821999905026
 20
-217.0718337941596
 30
0.0
 10
371.4230037464758
 20
-222.3606660496867
 30
0.0
 10
370.5341874515622
 20
-227.5995240248651
 30
0.0
 10
369.8173843074905
 20
-232.7793227779305
 30
0.0
 10
369.2739393099983
 20
-237.8910760460748
 30
0.0
 10
368.9049072775426
 20
-242.9259095254525
 30
0.0
 10
368.7110510304609
 20
-247.8750734320854
 30
0.0
 10
368.6928395498617
 20
-252.7299542846475
 30
0.0
 10
368.8504458843593
 20
-257.4820859083407
 30
0.0
 10
369.1837439764548
 20
-262.1231512094105
 30
0.0
 10
369.6923028930251
 20
-266.6449886466705
 30
0.0
 10
370.3753810812048
 20
-271.0396102881355
 30
0.0
 10
371.2319198610024
 20
-275.2992214394551
 30
0.0
 10
372.2605430303131
 20
-279.4162278195638
 30
0.0
 10
373.4595273476742
 20
-283.3832669962445
 30
0.0
 10
374.826866781122
 20
-287.1931285659942
 30
0.0
 10
376.359988681409
 20
-290.8391349915634
 30
0.0
 10
378.0567728877491
 20
-294.3138252023423
 30
0.0
 10
379.9117260842652
 20
-297.6139911773462
 30
0.0
 10
381.9302465534248
 20
-300.7220493001382
 30
0.0
 10
383.7636150414561
 20
-303.246265243501
 30
0.0
 10
384.9822568516188
 20
-304.6553212809833
 30
0.0
 10
385.4212344960132
 20
-305.1628897026437
 30
0.0
  0
LINE
  5
130
330
1F
100
AcDbEntity
  8
0
  6
Continuous
 62
     7
370
    25
100
AcDbLine
 10
555.3574277538
 20
-79.8821408447
 30
0.0
 11
539.8010785677
 21
-70.9016516147
 31
0.0
  0
LINE
  5
131
330
1F
100
AcDbEntity
  8
0
  6
Continuous
 62
     7
370
    25
100
AcDbLine
 10
398.3125778997
 20
-315.9934796684
 30
0.0
 11
413.8689270858
 21
-324.9739688985
 31
0.0
  0
SPLINE
  5
132
330
1F
100
AcDbEntity
  8
0
  6
Continuous
 62
     7
370
    25
100
AcDbSpline
210
0.0
220
0.0
230
1.0
 70
     8
 71
     3
 72
    59
 73
    55
 74
     0
 42
0.00000001
 43
0.00000001
 40
0.0
 40
0.0
 40
0.0
 40
0.0
 40
0.0140907773313538
 40
0.0334361174167608
 40
0.0527973128037788
 40
0.0721742438418329
 40
0.0915659921739314
 40
0.1109710740255821
 40
0.1303876722400395
 40
0.1498138381247855
 40
0.1692476481237613
 40
0.1886873120954894
 40
0.208131237875668
 40
0.227578060806849
 40
0.247026647919962
 40
0.2664760855989094
 40
0.2859255301946916
 40
0.3053744171681366
 40
0.3248223902567047
 40
0.3442692050422089
 40
0.3637147073135686
 40
0.3831588145282352
 40
0.4026015003140846
 40
0.4220427817656681
 40
0.4414827091993894
 40
0.4609213580077938
 40
0.4803588222665495
 40
0.4997952097801368
 40
0.5192306382924671
 40
0.538665232629868
 40
0.5580991225821736
 40
0.5775324413615578
 40
0.5969653245073364
 40
0.6163979091283663
 40
0.6358303333931998
 40
0.6552627361921408
 40
0.6746952333049149
 40
0.6941279415892071
 40
0.7135610009315659
 40
0.7329945511613118
 40
0.7524287317009619
 40
0.7718636810430916
 40
0.7912995359727382
 40
0.8107364304431135
 40
0.8301744939930646
 40
0.8496138495703911
 40
0.86905461059526
 40
0.8884968770627801
 40
0.9079407304435292
 40
0.9273862270977172
 40
0.9468333898758644
 40
0.966282197543662
 40
0.9857325716522761
 40
1.0
 40
1.0
 40
1.0
 40
1.0
 10
429.6753939274834
 20
-330.7237987856991
 30
0.0
 10
430.5296261528339
 20
-330.87950567633
 30
0.0
 10
432.5566405833616
 20
-331.2489837934921
 30
0.0
 10
435.8630266534477
 20
-331.5695855098126
 30
0.0
 10
439.5710784073862
 20
-331.7252951316686
 30
0.0
 10
443.361571214075
 20
-331.6468811857749
 30
0.0
 10
447.2237173699615
 20
-331.3442247541838
 30
0.0
 10
451.1517567735224
 20
-330.8150688253222
 30
0.0
 10
455.1383710635408
 20
-330.0609790385478
 30
0.0
 10
459.1764967562045
 20
-329.0830651402133
 30
0.0
 10
463.2588822685876
 20
-327.883120960684
 30
0.0
 10
467.3782440450736
 20
-326.4633038018099
 30
0.0
 10
471.5272549827632
 20
-324.8262016699155
 30
0.0
 10
475.6985712272383
 20
-322.9747952908992
 30
0.0
 10
479.8848433026267
 20
-320.9124488753622
 30
0.0
 10
484.0787183844932
 20
-318.6428996119261
 30
0.0
 10
488.2728569024179
 20
-316.1702435413048
 30
0.0
 10
492.4599455935198
 20
-313.4989216248481
 30
0.0
 10
496.6327141444819
 20
-310.6337021695306
 30
0.0
 10
500.7839350155548
 20
-307.5796748826714
 30
0.0
 10
504.906426950793
 20
-304.3422450822561
 30
0.0
 10
508.9930642015924
 20
-300.9271248454606
 30
0.0
 10
513.0367862612359
 20
-297.3403239512674
 30
0.0
 10
517.0306080425668
 20
-293.588140472765
 30
0.0
 10
520.9676304106026
 20
-289.6771509219309
 30
0.0
 10
524.8410509750789
 20
-285.614199886881
 30
0.0
 10
528.6441750493484
 20
-281.4063891305242
 30
0.0
 10
532.3704266881
 20
-277.0610661410798
 30
0.0
 10
536.013359724476
 20
-272.5858121404929
 30
0.0
 10
539.5666687358652
 20
-267.988429567802
 30
0.0
 10
543.0241998760144
 20
-263.2769290621018
 30
0.0
 10
546.3799615187257
 20
-258.4595159748828
 30
0.0
 10
549.6281346650343
 20
-253.5445764449868
 30
0.0
 10
552.7630830715009
 20
-248.5406630716363
 30
0.0
 10
555.7793630618768
 20
-243.4564802228628
 30
0.0
 10
558.6717318180143
 20
-238.3008711039564
 30
0.0
 10
561.4351567837679
 20
-233.082802523812
 30
0.0
 10
564.064825687343
 20
-227.811347333899
 30
0.0
 10
566.5561557517904
 20
-222.4956663930944
 30
0.0
 10
568.904801158859
 20
-217.1449925695209
 30
0.0
 10
571.106659272345
 20
-211.7686167332319
 30
0.0
 10
573.1578774350561
 20
-206.375871637916
 30
0.0
 10
575.054859307656
 20
-200.9761157469394
 30
0.0
 10
576.7942704840783
 20
-195.5787172023773
 30
0.0
 10
578.3730443133105
 20
-190.1930374549181
 30
0.0
 10
579.7883844181686
 20
-184.8284166322183
 30
0.0
 10
581.0377769974355
 20
-179.4941531937536
 30
0.0
 10
582.1189640913582
 20
-174.1995060152926
 30
0.0
 10
583.0300601028417
 20
-168.9536142167054
 30
0.0
 10
583.7691313059092
 20
-163.7657258590178
 30
0.0
 10
584.3357776770442
 20
-158.6442760332841
 30
0.0
 10
584.7252392558252
 20
-153.6002622892806
 30
0.0
 10
584.9303981558785
 20
-149.0757733470974
 30
0.0
 10
584.9523791065568
 20
-146.264818783889
 30
0.0
 10
584.9616801764954
 20
-145.0753850160384
 30
0.0
  0
SPLINE
  5
133
330
1F
100
AcDbEntity
  8
0
  6
Continuous
 62
     7
370
    25
100
AcDbSpline
210
0.0
220
0.0
230
1.0
 70
     8
 71
     3
 72
    22
 73
    18
 74
     0
 42
0.00000001
 43
0.00000001
 40
0.0
 40
0.0
 40
0.0
 40
0.0
 40
0.0375626120794176
 40
0.1089051703325935
 40
0.1802549501181051
 40
0.2516047967745708
 40
0.3229515640330181
 40
0.394291618250333
 40
0.4656204719721439
 40
0.5369327452470738
 40
0.6082221960864752
 40
0.6794818548449335
 40
0.7507042995338734
 40
0.8218821031591445
 40
0.893008465694253
 40
0.9640780092817661
 40
1.0
 40
1.0
 40
1.0
 40
1.0
 10
584.9616801764954
 20
-145.0753850160384
 30
0.0
 10
584.9567790703047
 20
-144.2281538352433
 30
0.0
 10
584.9425693075923
 20
-141.7717789734395
 30
0.0
 10
584.7846866711657
 20
-137.7847692176922
 30
0.0
 10
584.4304746023994
 20
-133.1578025512115
 30
0.0
 10
583.8986871179599
 20
-128.652324548514
 30
0.0
 10
583.1931390918564
 20
-124.2747348696013
 30
0.0
 10
582.3141201159675
 20
-120.0332475432513
 30
0.0
 10
581.2632657390108
 20
-115.935311073633
 30
0.0
 10
580.04228605602
 20
-111.9882895619632
 30
0.0
 10
578.6532429389681
 20
-108.1993602896783
 30
0.0
 10
577.0987684680603
 20
-104.5751445687891
 30
0.0
 10
575.3809647944427
 20
-101.1231558271505
 30
0.0
 10
573.50561589289
 20
-97.84622121786056
 30
0.0
 10
571.4664559083685
 20
-94.76314022450408
 30
0.0
 10
569.6596926429439
 20
-92.31396595258332
 30
0.0
 10
568.4772013528956
 20
-90.96871938352473
 30
0.0
 10
568.0801845101973
 20
-90.51705809012404
 30
0.0
  0
SPLINE
  5
134
330
1F
100
AcDbEntity
  8
0
  6
Continuous
 62
     7
370
    25
100
AcDbSpline
210
0.0
220
0.0
230
1.0
 70
     8
 71
     3
 72
    14
 73
    10
 74
     0
 42
0.00000001
 43
0.00000001
 40
0.0
 40
0.0
 40
0.0
 40
0.0
 40
0.0420071727670132
 40
0.236914653423567
 40
0.412826799802635
 40
0.5998182561826334
 40
0.7802082568441518
 40
0.94707619120735
 40
1.0
 40
1.0
 40
1.0
 40
1.0
 10
534.6728573911539
 20
-218.6686164681124
 30
0.0
 10
534.7308590138335
 20
-218.6901123872065
 30
0.0
 10
535.0579801560103
 20
-218.8113464024171
 30
0.0
 10
535.5159602456467
 20
-219.2094743733549
 30
0.0
 10
536.0701691854233
 20
-219.8908995992422
 30
0.0
 10
536.4886394783258
 20
-220.7715992582116
 30
0.0
 10
536.7625502534634
 20
-221.8243382245935
 30
0.0
 10
536.8593627009847
 20
-222.7263952183317
 30
0.0
 10
536.8656062252944
 20
-223.2574468666276
 30
0.0
 10
536.8671096079148
 20
-223.3853191674242
 30
0.0
  0
SPLINE
  5
135
330
1F
100
AcDbEntity
  8
0
  6
Continuous
 62
     7
370
    25
100
AcDbSpline
210
0.0
220
0.0
230
1.0
 70
     8
 71
     3
 72
    24
 73
    20
 74
     0
 42
0.00000001
 43
0.00000001
 40
0.0
 40
0.0
 40
0.0
 40
0.0
 40
0.0319935283053284
 40
0.0933828385513576
 40
0.1549660585331253
 40
0.2167259049065085
 40
0.278633650651252
 40
0.3406347951450149
 40
0.4026659071199593
 40
0.4646476810979627
 40
0.5265034314176547
 40
0.5881674725394456
 40
0.6495845425031105
 40
0.7107328105206377
 40
0.7716766095904133
 40
0.8326063916033869
 40
0.8939701634230097
 40
0.9567616137434725
 40
1.0
 40
1.0
 40
1.0
 40
1.0
 10
536.8671096079148
 20
-223.3853191674242
 30
0.0
 10
536.8626895951985
 20
-223.6128404607279
 30
0.0
 10
536.8497884443798
 20
-224.2769305228434
 30
0.0
 10
536.7039368501471
 20
-225.456832729276
 30
0.0
 10
536.3746243308528
 20
-226.9208980958443
 30
0.0
 10
535.8838609878626
 20
-228.420150246085
 30
0.0
 10
535.2438239106929
 20
-229.9172226179051
 30
0.0
 10
534.4674206614452
 20
-231.377585655842
 30
0.0
 10
533.5725253213524
 20
-232.7667316777966
 30
0.0
 10
532.5803480244527
 20
-234.0521586946887
 30
0.0
 10
531.5152539309926
 20
-235.2041253448788
 30
0.0
 10
530.4040668283347
 20
-236.1967256915132
 30
0.0
 10
529.2755365661095
 20
-237.0087265182431
 30
0.0
 10
528.1593516485036
 20
-237.6249031272043
 30
0.0
 10
527.0856262177275
 20
-238.0360329075932
 30
0.0
 10
526.0805361320062
 20
-238.2436401096155
 30
0.0
 10
525.1696710240207
 20
-238.2455393094316
 30
0.0
 10
524.4379867390664
 20
-238.1032267591055
 30
0.0
 10
524.0565003279803
 20
-237.8821142069546
 30
0.0
 10
523.9009322602867
 20
-237.7919457200013
 30
0.0
  0
SPLINE
  5
136
330
1F
100
AcDbEntity
  8
0
  6
Continuous
 62
     7
370
    25
100
AcDbSpline
210
0.0
220
0.0
230
1.0
 70
     8
 71
     3
 72
    19
 73
    15
 74
     0
 42
0.00000001
 43
0.00000001
 40
0.0
 40
0.0
 40
0.0
 40
0.0
 40
0.0609756320715853
 40
0.1474699427621693
 40
0.233813523515437
 40
0.3200108053629972
 40
0.4060774503856036
 40
0.4920351547396931
 40
0.5779073834275709
 40
0.6637164689236251
 40
0.7494819879559935
 40
0.8352201053873286
 40
0.9209435440640141
 40
0.9999999999999999
 40
0.9999999999999999
 40
0.9999999999999999
 40
0.9999999999999999
 10
520.3749863378061
 20
-121.833869776351
 30
0.0
 10
520.8166453934256
 20
-122.3065880840667
 30
0.0
 10
521.884800547211
 20
-123.4498602308748
 30
0.0
 10
523.4139068380293
 20
-125.4918715036171
 30
0.0
 10
524.9792186101045
 20
-127.9181946602498
 30
0.0
 10
526.3848358254745
 20
-130.5322578151941
 30
0.0
 10
527.6336698247011
 20
-133.3176203225656
 30
0.0
 10
528.7208295907078
 20
-136.2692303004013
 30
0.0
 10
529.6440494813618
 20
-139.378510830816
 30
0.0
 10
530.400445016893
 20
-142.6375451793032
 30
0.0
 10
530.9890205633483
 20
-146.0369521140593
 30
0.0
 10
531.4039648876534
 20
-149.5700190451828
 30
0.0
 10
531.65250492308
 20
-153.123725159382
 30
0.0
 10
531.6821944128845
 20
-155.5467201946971
 30
0.0
 10
531.6964385404708
 20
-156.709200609512
 30
0.0
  0
SPLINE
  5
137
330
1F
100
AcDbEntity
  8
0
  6
Continuous
 62
     7
370
    25
100
AcDbSpline
210
0.0
220
0.0
230
1.0
 70
     8
 71
     3
 72
    49
 73
    45
 74
     0
 42
0.00000001
 43
0.00000001
 40
0.0
 40
0.0
 40
0.0
 40
0.0
 40
0.0127416824058843
 40
0.0369844573343057
 40
0.0612318217740617
 40
0.0854820077223427
 40
0.109735480987011
 40
0.1339924411184938
 40
0.1582528920853338
 40
0.1825166971619316
 40
0.2067836202763108
 40
0.2310533565662418
 40
0.2553255545377692
 40
0.2795998318098696
 40
0.3038757860386087
 40
0.3281530022769603
 40
0.3524310577521628
 40
0.3767095248301351
 40
0.4009879657204656
 40
0.4252658108410041
 40
0.4495426265118662
 40
0.4738179793249466
 40
0.4980914380292489
 40
0.5223625767442456
 40
0.5466309801129892
 40
0.5708962512074713
 40
0.5951580232261402
 40
0.6194159763151493
 40
0.6436698612012025
 40
0.6679195317326678
 40
0.6921649888493251
 40
0.716406438855137
 40
0.7406443689870662
 40
0.7648796428601894
 40
0.7891136169318195
 40
0.8133476722419003
 40
0.8375841720870412
 40
0.8618264772003086
 40
0.8860789341643588
 40
0.9103469147457939
 40
0.9346367084861288
 40
0.9589551774732403
 40
0.9833090794998159
 40
0.9999999999999999
 40
0.9999999999999999
 40
0.9999999999999999
 40
0.9999999999999999
 10
531.6964385404708
 20
-156.709200609512
 30
0.0
 10
531.6916321809733
 20
-157.3792323179194
 30
0.0
 10
531.6776810721556
 20
-159.324090017463
 30
0.0
 10
531.522476972974
 20
-162.6191813311895
 30
0.0
 10
531.1740767446455
 20
-166.6141821182383
 30
0.0
 10
530.6512878102923
 20
-170.6859654194292
 30
0.0
 10
529.9583647658856
 20
-174.8212354781611
 30
0.0
 10
529.0962737481643
 20
-179.0089522096922
 30
0.0
 10
528.0674824323223
 20
-183.2372906218217
 30
0.0
 10
526.8746725473993
 20
-187.494467161639
 30
0.0
 10
525.5210749262773
 20
-191.768566625619
 30
0.0
 10
524.0103673609074
 20
-196.0476357107609
 30
0.0
 10
522.3466876931627
 20
-200.3197039852382
 30
0.0
 10
520.5346143799616
 20
-204.5728233120086
 30
0.0
 10
518.5791543393041
 20
-208.7951014385467
 30
0.0
 10
516.4857275539435
 20
-212.9747363500659
 30
0.0
 10
514.2601513555196
 20
-217.100049682007
 30
0.0
 10
511.9086239095005
 20
-221.1595192936971
 30
0.0
 10
509.4377111538157
 20
-225.1418046279535
 30
0.0
 10
506.8543247688042
 20
-229.0357868426695
 30
0.0
 10
504.1657025824302
 20
-232.830600843938
 30
0.0
 10
501.3793832572226
 20
-236.5156725280704
 30
0.0
 10
498.5031902776329
 20
-240.0807415683202
 30
0.0
 10
495.5452105258132
 20
-243.5158911193909
 30
0.0
 10
492.513772050331
 20
-246.8115769557699
 30
0.0
 10
489.4174209727487
 20
-249.9586560256517
 30
0.0
 10
486.2648974393226
 20
-252.9484143995975
 30
0.0
 10
483.0651104797696
 20
-255.7725945762459
 30
0.0
 10
479.8271115773848
 20
-258.4234220771555
 30
0.0
 10
476.5600666896859
 20
-260.8936312017163
 30
0.0
 10
473.2732263775154
 20
-263.1764897374721
 30
0.0
 10
469.975893662419
 20
-265.2658222101506
 30
0.0
 10
466.6773890774326
 20
-267.1560312878532
 30
0.0
 10
463.3870128186599
 20
-268.8421157394882
 30
0.0
 10
460.1140296610246
 20
-270.319674100728
 30
0.0
 10
456.8676164939901
 20
-271.5849201295314
 30
0.0
 10
453.6567984752501
 20
-272.6347144556893
 30
0.0
 10
450.4904132318925
 20
-273.4664770098418
 30
0.0
 10
447.3769266838949
 20
-274.0784832202361
 30
0.0
 10
444.3249453042585
 20
-274.4686164278983
 30
0.0
 10
441.3411374013533
 20
-274.6388401266382
 30
0.0
 10
438.4378948814401
 20
-274.5782412334576
 30
0.0
 10
435.9034266016952
 20
-274.3527388214818
 30
0.0
 10
434.3820634549641
 20
-274.0516097760029
 30
0.0
 10
433.7633995219565
 20
-273.9291553311065
 30
0.0
  0
SPLINE
  5
138
330
1F
100
AcDbEntity
  8
0
  6
Continuous
 62
     7
370
    25
100
AcDbSpline
210
0.0
220
0.0
230
1.0
 70
     8
 71
     3
 72
    60
 73
    56
 74
     0
 42
0.00000001
 43
0.00000001
 40
0.0
 40
0.0
 40
0.0
 40
0.0
 40
0.0179402630703146
 40
0.0371635472629676
 40
0.0563537027710629
 40
0.075513644138248
 40
0.0946479353063595
 40
0.1137617669984659
 40
0.1328602255803002
 40
0.151947859097558
 40
0.1710284796808688
 40
0.1901051253590536
 40
0.209180114239789
 40
0.2282548738768214
 40
0.2473305117778211
 40
0.2664079327444999
 40
0.2854876991843767
 40
0.3045701136562936
 40
0.3236552856441648
 40
0.3427431838782017
 40
0.3618336763489925
 40
0.3809265602874432
 40
0.4000215842057858
 40
0.4191184637950641
 40
0.4382168931518374
 40
0.4573165525097218
 40
0.4764171133994292
 40
0.4955182419589504
 40
0.5146196009611994
 40
0.5337208141868267
 40
0.5528214644932767
 40
0.5719212106288633
 40
0.5910197118881768
 40
0.6101166298396962
 40
0.6292116312199345
 40
0.6483043925151138
 40
0.6673946069141644
 40
0.6864819945094477
 40
0.7055663168652906
 40
0.7246473973677651
 40
0.7437251490981543
 40
0.7627996122995382
 40
0.7818710037498485
 40
0.800939780361496
 40
0.8200067188269686
 40
0.8390729717832863
 40
0.8581396677926492
 40
0.877208944324613
 40
0.8962836523237258
 40
0.9153674349035388
 40
0.9344647327639894
 40
0.9535806556520046
 40
0.9727206455507291
 40
0.9918898620872454
 40
1.0
 40
1.0
 40
1.0
 40
1.0
 10
432.3665416232644
 20
-273.0348947226445
 30
0.0
 10
431.8132061277069
 20
-272.36683891978
 30
0.0
 10
430.6669626327911
 20
-270.9829504390621
 30
0.0
 10
429.1095166496904
 20
-268.6434169582711
 30
0.0
 10
427.6572201788877
 20
-266.0835430174388
 30
0.0
 10
426.3653502851328
 20
-263.343930926603
 30
0.0
 10
425.2330813560801
 20
-260.4376844982116
 30
0.0
 10
424.2643999742762
 20
-257.3710610075094
 30
0.0
 10
423.461577265622
 20
-254.1526184091213
 30
0.0
 10
422.8269087524897
 20
-250.7908192687201
 30
0.0
 10
422.362220146749
 20
-247.2946987246806
 30
0.0
 10
422.0689610297922
 20
-243.6736881424136
 30
0.0
 10
421.9481416787613
 20
-239.9376613671475
 30
0.0
 10
422.0003126253452
 20
-236.0968832568089
 30
0.0
 10
422.2255430661583
 20
-232.1619633809788
 30
0.0
 10
422.6234142426256
 20
-228.1437967475881
 30
0.0
 10
423.1930157252388
 20
-224.0535364553947
 30
0.0
 10
423.9329422222371
 20
-219.9025687843903
 30
0.0
 10
424.8412945941827
 20
-215.7024727583964
 30
0.0
 10
425.9156841160932
 20
-211.4649804849471
 30
0.0
 10
427.1532392990025
 20
-207.2019384846797
 30
0.0
 10
428.5506147621653
 20
-202.9252700159641
 30
0.0
 10
430.1040017744633
 20
-198.6469383309566
 30
0.0
 10
431.8091401922547
 20
-194.3789107681678
 30
0.0
 10
433.6613316006947
 20
-190.1331235875388
 30
0.0
 10
435.6554535233052
 20
-185.9214474681296
 30
0.0
 10
437.7859746045324
 20
-181.755653608026
 30
0.0
 10
440.0469706967224
 20
-177.6473803861863
 30
0.0
 10
442.4321402685675
 20
-173.6081031581341
 30
0.0
 10
444.9348200187683
 20
-169.6491044343405
 30
0.0
 10
447.5480061610019
 20
-165.7814362054494
 30
0.0
 10
450.2643757875344
 20
-162.0158861207614
 30
0.0
 10
453.0763094786034
 20
-158.3629446282051
 30
0.0
 10
455.9759088310309
 20
-154.8327801390635
 30
0.0
 10
458.9550181012913
 20
-151.4352094784379
 30
0.0
 10
462.0052466678626
 20
-148.1796689066735
 30
0.0
 10
465.1179923773656
 20
-145.0751857300189
 30
0.0
 10
468.2844658787087
 20
-142.1303505247278
 30
0.0
 10
471.4957160978607
 20
-139.3532900192376
 30
0.0
 10
474.7426570668972
 20
-136.7516407144223
 30
0.0
 10
478.0160963870562
 20
-134.3325233946217
 30
0.0
 10
481.3067656916783
 20
-132.102518760184
 30
0.0
 10
484.605353490574
 20
-130.0676446792406
 30
0.0
 10
487.9025409858483
 20
-128.2333354048017
 30
0.0
 10
491.1890384378326
 20
-126.6044260150241
 30
0.0
 10
494.4555975214142
 20
-125.1851497624399
 30
0.0
 10
497.6930749804563
 20
-123.9791216995619
 30
0.0
 10
500.8925000943958
 20
-122.9892990478886
 30
0.0
 10
504.0450904571695
 20
-122.2181237101605
 30
0.0
 10
507.1425123609311
 20
-121.6670420840629
 30
0.0
 10
510.1760395254703
 20
-121.3384669890251
 30
0.0
 10
513.1398651882129
 20
-121.2286459900447
 30
0.0
 10
516.0187994167791
 20
-121.3545734560077
 30
0.0
 10
518.2912054538062
 20
-121.5959469406308
 30
0.0
 10
519.5652166767719
 20
-121.8744822516641
 30
0.0
 10
519.9439795518194
 20
-121.9572906550027
 30
0.0
  0
SPLINE
  5
139
330
1F
100
AcDbEntity
  8
0
  6
Continuous
 62
     7
370
    25
100
AcDbSpline
210
0.0
220
0.0
230
1.0
 70
     8
 71
     3
 72
    14
 73
    10
 74
     0
 42
0.00000001
 43
0.00000001
 40
0.0
 40
0.0
 40
0.0
 40
0.0
 40
0.042007172767037
 40
0.2369146534235935
 40
0.4128267998026671
 40
0.5998182561826874
 40
0.7802082568442058
 40
0.9470761912074074
 40
1.0
 40
1.0
 40
1.0
 40
1.0
 10
559.660290541314
 20
-134.5825949255882
 30
0.0
 10
559.7182921639937
 20
-134.6040908446823
 30
0.0
 10
560.0454133061705
 20
-134.725324859893
 30
0.0
 10
560.5033933958069
 20
-135.1234528308308
 30
0.0
 10
561.0576023355833
 20
-135.8048780567182
 30
0.0
 10
561.476072628486
 20
-136.6855777156877
 30
0.0
 10
561.7499834036233
 20
-137.7383166820696
 30
0.0
 10
561.8467958511446
 20
-138.6403736758078
 30
0.0
 10
561.8530393754545
 20
-139.1714253241035
 30
0.0
 10
561.8545427580749
 20
-139.2992976249
 30
0.0
  0
SPLINE
  5
13A
330
1F
100
AcDbEntity
  8
0
  6
Continuous
 62
     7
370
    25
100
AcDbSpline
210
0.0
220
0.0
230
1.0
 70
     8
 71
     3
 72
    24
 73
    20
 74
     0
 42
0.00000001
 43
0.00000001
 40
0.0
 40
0.0
 40
0.0
 40
0.0
 40
0.0319935283053285
 40
0.0933828385513568
 40
0.1549660585331285
 40
0.2167259049065039
 40
0.2786336506512549
 40
0.3406347951450216
 40
0.402665907119961
 40
0.4646476810979621
 40
0.5265034314176535
 40
0.5881674725394458
 40
0.6495845425031093
 40
0.7107328105206426
 40
0.7716766095904164
 40
0.8326063916033901
 40
0.8939701634230145
 40
0.9567616137434765
 40
1.0
 40
1.0
 40
1.0
 40
1.0
 10
561.8545427580749
 20
-139.2992976249
 30
0.0
 10
561.8501227453585
 20
-139.5268189182037
 30
0.0
 10
561.8372215945398
 20
-140.1909089803192
 30
0.0
 10
561.6913700003071
 20
-141.3708111867518
 30
0.0
 10
561.3620574810127
 20
-142.8348765533201
 30
0.0
 10
560.8712941380224
 20
-144.3341287035608
 30
0.0
 10
560.2312570608528
 20
-145.8312010753809
 30
0.0
 10
559.454853811605
 20
-147.2915641133179
 30
0.0
 10
558.5599584715123
 20
-148.6807101352725
 30
0.0
 10
557.5677811746127
 20
-149.9661371521645
 30
0.0
 10
556.5026870811524
 20
-151.1181038023546
 30
0.0
 10
555.3914999784948
 20
-152.110704148989
 30
0.0
 10
554.2629697162695
 20
-152.9227049757189
 30
0.0
 10
553.1467847986635
 20
-153.5388815846802
 30
0.0
 10
552.0730593678874
 20
-153.950011365069
 30
0.0
 10
551.067969282166
 20
-154.1576185670912
 30
0.0
 10
550.1571041741806
 20
-154.1595177669073
 30
0.0
 10
549.4254198892264
 20
-154.0172052165812
 30
0.0
 10
549.0439334781403
 20
-153.7960926644304
 30
0.0
 10
548.8883654104466
 20
-153.705924177477
 30
0.0
  0
SPLINE
  5
13B
330
1F
100
AcDbEntity
  8
0
  6
Continuous
 62
     7
370
    25
100
AcDbSpline
210
0.0
220
0.0
230
1.0
 70
     8
 71
     3
 72
    14
 73
    10
 74
     0
 42
0.00000001
 43
0.00000001
 40
0.0
 40
0.0
 40
0.0
 40
0.0
 40
0.0420071727670444
 40
0.2369146534236024
 40
0.4128267998026796
 40
0.5998182561826916
 40
0.7802082568442202
 40
0.9470761912074187
 40
1.0
 40
1.0
 40
1.0
 40
1.0
 10
474.347857391152
 20
-282.3480632253096
 30
0.0
 10
474.4058590138317
 20
-282.3695591444036
 30
0.0
 10
474.7329801560086
 20
-282.4907931596143
 30
0.0
 10
475.1909602456449
 20
-282.8889211305522
 30
0.0
 10
475.7451691854214
 20
-283.5703463564396
 30
0.0
 10
476.1636394783239
 20
-284.451046015409
 30
0.0
 10
476.4375502534614
 20
-285.503784981791
 30
0.0
 10
476.5343627009826
 20
-286.4058419755292
 30
0.0
 10
476.5406062252924
 20
-286.9368936238248
 30
0.0
 10
476.5421096079128
 20
-287.0647659246213
 30
0.0
  0
SPLINE
  5
13C
330
1F
100
AcDbEntity
  8
0
  6
Continuous
 62
     7
370
    25
100
AcDbSpline
210
0.0
220
0.0
230
1.0
 70
     8
 71
     3
 72
    24
 73
    20
 74
     0
 42
0.00000001
 43
0.00000001
 40
0.0
 40
0.0
 40
0.0
 40
0.0
 40
0.031993528305328
 40
0.0933828385513625
 40
0.1549660585331303
 40
0.2167259049065113
 40
0.2786336506512575
 40
0.3406347951450222
 40
0.4026659071199654
 40
0.4646476810979668
 40
0.5265034314176547
 40
0.5881674725394453
 40
0.6495845425031125
 40
0.7107328105206531
 40
0.771676609590421
 40
0.8326063916033933
 40
0.8939701634230177
 40
0.9567616137434827
 40
1.0
 40
1.0
 40
1.0
 40
1.0
 10
476.5421096079128
 20
-287.0647659246213
 30
0.0
 10
476.5376895951965
 20
-287.292287217925
 30
0.0
 10
476.5247884443779
 20
-287.9563772800406
 30
0.0
 10
476.378936850145
 20
-289.1362794864732
 30
0.0
 10
476.0496243308507
 20
-290.6003448530415
 30
0.0
 10
475.5588609878604
 20
-292.0995970032823
 30
0.0
 10
474.9188239106908
 20
-293.5966693751024
 30
0.0
 10
474.1424206614429
 20
-295.0570324130393
 30
0.0
 10
473.2475253213502
 20
-296.446178434994
 30
0.0
 10
472.2553480244505
 20
-297.731605451886
 30
0.0
 10
471.1902539309904
 20
-298.8835721020761
 30
0.0
 10
470.0790668283325
 20
-299.8761724487105
 30
0.0
 10
468.9505365661072
 20
-300.6881732754404
 30
0.0
 10
467.8343516485012
 20
-301.3043498844016
 30
0.0
 10
466.7606262177251
 20
-301.7154796647903
 30
0.0
 10
465.7555361320038
 20
-301.9230868668126
 30
0.0
 10
464.8446710240183
 20
-301.9249860666287
 30
0.0
 10
464.1129867390642
 20
-301.7826735163025
 30
0.0
 10
463.7315003279781
 20
-301.5615609641517
 30
0.0
 10
463.5759322602845
 20
-301.4713924771982
 30
0.0
  0
SPLINE
  5
13D
330
1F
100
AcDbEntity
  8
0
  6
Continuous
 62
     7
370
    25
100
AcDbSpline
210
0.0
220
0.0
230
1.0
 70
     8
 71
     3
 72
    14
 73
    10
 74
     0
 42
0.00000001
 43
0.00000001
 40
0.0
 40
0.0
 40
0.0
 40
0.0
 40
0.0420071727670487
 40
0.2369146534236139
 40
0.4128267998026883
 40
0.5998182561826826
 40
0.7802082568442181
 40
0.9470761912074163
 40
1.0
 40
1.0
 40
1.0
 40
1.0
 10
534.6728573911591
 20
-79.3464496113512
 30
0.0
 10
534.7308590138389
 20
-79.3679455304453
 30
0.0
 10
535.0579801560158
 20
-79.48917954565597
 30
0.0
 10
535.5159602456522
 20
-79.88730751659385
 30
0.0
 10
536.0701691854287
 20
-80.56873274248116
 30
0.0
 10
536.4886394783312
 20
-81.44943240145071
 30
0.0
 10
536.7625502534686
 20
-82.5021713678326
 30
0.0
 10
536.8593627009898
 20
-83.40422836157074
 30
0.0
 10
536.8656062252996
 20
-83.93528000986643
 30
0.0
 10
536.86710960792
 20
-84.06315231066289
 30
0.0
  0
SPLINE
  5
13E
330
1F
100
AcDbEntity
  8
0
  6
Continuous
 62
     7
370
    25
100
AcDbSpline
210
0.0
220
0.0
230
1.0
 70
     8
 71
     3
 72
    24
 73
    20
 74
     0
 42
0.00000001
 43
0.00000001
 40
0.0
 40
0.0
 40
0.0
 40
0.0
 40
0.0319935283053283
 40
0.0933828385513572
 40
0.1549660585331248
 40
0.2167259049065078
 40
0.2786336506512511
 40
0.3406347951450138
 40
0.402665907119958
 40
0.4646476810979612
 40
0.5265034314176529
 40
0.5881674725394437
 40
0.6495845425031083
 40
0.7107328105206385
 40
0.7716766095904144
 40
0.8326063916033878
 40
0.8939701634230147
 40
0.9567616137434733
 40
0.9999999999999999
 40
0.9999999999999999
 40
0.9999999999999999
 40
0.9999999999999999
 10
536.86710960792
 20
-84.06315231066289
 30
0.0
 10
536.8626895952036
 20
-84.29067360396665
 30
0.0
 10
536.849788444385
 20
-84.95476366608213
 30
0.0
 10
536.7039368501522
 20
-86.13466587251469
 30
0.0
 10
536.374624330858
 20
-87.59873123908305
 30
0.0
 10
535.8838609878677
 20
-89.0979833893237
 30
0.0
 10
535.2438239106981
 20
-90.59505576114374
 30
0.0
 10
534.4674206614502
 20
-92.05541879908067
 30
0.0
 10
533.5725253213576
 20
-93.44456482103529
 30
0.0
 10
532.5803480244579
 20
-94.72999183792743
 30
0.0
 10
531.5152539309977
 20
-95.88195848811746
 30
0.0
 10
530.40406682834
 20
-96.87455883475194
 30
0.0
 10
529.2755365661147
 20
-97.68655966148181
 30
0.0
 10
528.1593516485087
 20
-98.30273627044308
 30
0.0
 10
527.0856262177327
 20
-98.71386605083185
 30
0.0
 10
526.0805361320113
 20
-98.9214732528542
 30
0.0
 10
525.1696710240258
 20
-98.92337245267025
 30
0.0
 10
524.4379867390716
 20
-98.78105990234415
 30
0.0
 10
524.0565003279854
 20
-98.5599473501933
 30
0.0
 10
523.9009322602918
 20
-98.4697788632399
 30
0.0
  0
SPLINE
  5
13F
330
1F
100
AcDbEntity
  8
0
  6
Continuous
 62
     7
370
    25
100
AcDbSpline
210
0.0
220
0.0
230
1.0
 70
     8
 71
     3
 72
    14
 73
    10
 74
     0
 42
0.00000001
 43
0.00000001
 40
0.0
 40
0.0
 40
0.0
 40
0.0
 40
0.0420071727670132
 40
0.236914653423567
 40
0.412826799802635
 40
0.5998182561826334
 40
0.7802082568441518
 40
0.94707619120735
 40
1.0
 40
1.0
 40
1.0
 40
1.0
 10
414.0228573911519
 20
-288.3183789312286
 30
0.0
 10
414.0808590138316
 20
-288.3398748503227
 30
0.0
 10
414.4079801560084
 20
-288.4611088655333
 30
0.0
 10
414.8659602456448
 20
-288.8592368364712
 30
0.0
 10
415.4201691854212
 20
-289.5406620623584
 30
0.0
 10
415.8386394783238
 20
-290.4213617213278
 30
0.0
 10
416.1125502534614
 20
-291.4741006877097
 30
0.0
 10
416.2093627009826
 20
-292.376157681448
 30
0.0
 10
416.2156062252925
 20
-292.9072093297439
 30
0.0
 10
416.2171096079129
 20
-293.0350816305404
 30
0.0
  0
SPLINE
  5
140
330
1F
100
AcDbEntity
  8
0
  6
Continuous
 62
     7
370
    25
100
AcDbSpline
210
0.0
220
0.0
230
1.0
 70
     8
 71
     3
 72
    24
 73
    20
 74
     0
 42
0.00000001
 43
0.00000001
 40
0.0
 40
0.0
 40
0.0
 40
0.0
 40
0.0319935283053284
 40
0.0933828385513576
 40
0.1549660585331253
 40
0.2167259049065085
 40
0.278633650651252
 40
0.3406347951450149
 40
0.4026659071199593
 40
0.4646476810979627
 40
0.5265034314176547
 40
0.5881674725394456
 40
0.6495845425031105
 40
0.7107328105206377
 40
0.7716766095904133
 40
0.8326063916033869
 40
0.8939701634230097
 40
0.9567616137434725
 40
1.0
 40
1.0
 40
1.0
 40
1.0
 10
416.2171096079129
 20
-293.0350816305404
 30
0.0
 10
416.2126895951965
 20
-293.2626029238441
 30
0.0
 10
416.1997884443779
 20
-293.9266929859596
 30
0.0
 10
416.0539368501451
 20
-295.1065951923923
 30
0.0
 10
415.7246243308508
 20
-296.5706605589605
 30
0.0
 10
415.2338609878605
 20
-298.0699127092012
 30
0.0
 10
414.593823910691
 20
-299.5669850810213
 30
0.0
 10
413.8174206614431
 20
-301.0273481189583
 30
0.0
 10
412.9225253213505
 20
-302.4164941409128
 30
0.0
 10
411.9303480244507
 20
-303.7019211578049
 30
0.0
 10
410.8652539309905
 20
-304.853887807995
 30
0.0
 10
409.7540668283328
 20
-305.8464881546295
 30
0.0
 10
408.6255365661075
 20
-306.6584889813593
 30
0.0
 10
407.5093516485016
 20
-307.2746655903205
 30
0.0
 10
406.4356262177255
 20
-307.6857953707094
 30
0.0
 10
405.4305361320042
 20
-307.8934025727317
 30
0.0
 10
404.5196710240187
 20
-307.8953017725478
 30
0.0
 10
403.7879867390646
 20
-307.7529892222217
 30
0.0
 10
403.4065003279784
 20
-307.5318766700709
 30
0.0
 10
403.2509322602847
 20
-307.4417081831174
 30
0.0
  0
SPLINE
  5
141
330
1F
100
AcDbEntity
  8
0
  6
Continuous
 62
     7
370
    25
100
AcDbSpline
210
0.0
220
0.0
230
1.0
 70
     8
 71
     3
 72
    14
 73
    10
 74
     0
 42
0.00000001
 43
0.00000001
 40
0.0
 40
0.0
 40
0.0
 40
0.0
 40
0.0420071727670305
 40
0.2369146534235769
 40
0.4128267998026528
 40
0.599818256182659
 40
0.7802082568441896
 40
0.9470761912073874
 40
1.0
 40
1.0
 40
1.0
 40
1.0
 10
474.3478573911593
 20
-85.31676531727028
 30
0.0
 10
474.4058590138389
 20
-85.33826123636437
 30
0.0
 10
474.7329801560158
 20
-85.45949525157504
 30
0.0
 10
475.1909602456521
 20
-85.85762322251286
 30
0.0
 10
475.7451691854286
 20
-86.53904844840015
 30
0.0
 10
476.1636394783312
 20
-87.41974810736961
 30
0.0
 10
476.4375502534686
 20
-88.4724870737516
 30
0.0
 10
476.5343627009898
 20
-89.37454406748977
 30
0.0
 10
476.5406062252998
 20
-89.9055957157855
 30
0.0
 10
476.5421096079202
 20
-90.033468016582
 30
0.0
  0
SPLINE
  5
142
330
1F
100
AcDbEntity
  8
0
  6
Continuous
 62
     7
370
    25
100
AcDbSpline
210
0.0
220
0.0
230
1.0
 70
     8
 71
     3
 72
    24
 73
    20
 74
     0
 42
0.00000001
 43
0.00000001
 40
0.0
 40
0.0
 40
0.0
 40
0.0
 40
0.0319935283053285
 40
0.0933828385513641
 40
0.1549660585331329
 40
0.2167259049065149
 40
0.2786336506512613
 40
0.3406347951450265
 40
0.402665907119966
 40
0.4646476810979654
 40
0.5265034314176582
 40
0.5881674725394513
 40
0.6495845425031135
 40
0.710732810520646
 40
0.7716766095904193
 40
0.8326063916033939
 40
0.8939701634230174
 40
0.9567616137434778
 40
1.0
 40
1.0
 40
1.0
 40
1.0
 10
476.5421096079202
 20
-90.033468016582
 30
0.0
 10
476.5376895952037
 20
-90.26098930988573
 30
0.0
 10
476.5247884443851
 20
-90.92507937200125
 30
0.0
 10
476.3789368501522
 20
-92.10498157843394
 30
0.0
 10
476.049624330858
 20
-93.56904694500226
 30
0.0
 10
475.5588609878677
 20
-95.06829909524305
 30
0.0
 10
474.9188239106981
 20
-96.56537146706304
 30
0.0
 10
474.1424206614502
 20
-98.025734505
 30
0.0
 10
473.2475253213576
 20
-99.41488052695458
 30
0.0
 10
472.2553480244579
 20
-100.7003075438466
 30
0.0
 10
471.1902539309977
 20
-101.8522741940366
 30
0.0
 10
470.0790668283399
 20
-102.8448745406711
 30
0.0
 10
468.9505365661147
 20
-103.656875367401
 30
0.0
 10
467.8343516485087
 20
-104.2730519763622
 30
0.0
 10
466.7606262177327
 20
-104.684181756751
 30
0.0
 10
465.7555361320113
 20
-104.8917889587733
 30
0.0
 10
464.8446710240259
 20
-104.8936881585894
 30
0.0
 10
464.1129867390717
 20
-104.7513756082633
 30
0.0
 10
463.7315003279856
 20
-104.5302630561125
 30
0.0
 10
463.5759322602919
 20
-104.4400945691591
 30
0.0
  0
SPLINE
  5
143
330
1F
100
AcDbEntity
  8
0
  6
Continuous
 62
     7
370
    25
100
AcDbSpline
210
0.0
220
0.0
230
1.0
 70
     8
 71
     3
 72
    14
 73
    10
 74
     0
 42
0.00000001
 43
0.00000001
 40
0.0
 40
0.0
 40
0.0
 40
0.0
 40
0.0420071727670171
 40
0.2369146534235589
 40
0.4128267998026361
 40
0.5998182561826454
 40
0.7802082568441723
 40
0.9470761912073675
 40
1.0
 40
1.0
 40
1.0
 40
1.0
 10
389.0354242409971
 20
-233.0822336169916
 30
0.0
 10
389.0934258636768
 20
-233.1037295360857
 30
0.0
 10
389.4205470058537
 20
-233.2249635512963
 30
0.0
 10
389.8785270954899
 20
-233.6230915222341
 30
0.0
 10
390.4327360352665
 20
-234.3045167481213
 30
0.0
 10
390.8512063281691
 20
-235.1852164070908
 30
0.0
 10
391.1251171033066
 20
-236.2379553734727
 30
0.0
 10
391.2219295508278
 20
-237.140012367211
 30
0.0
 10
391.2281730751377
 20
-237.6710640155068
 30
0.0
 10
391.2296764577582
 20
-237.7989363163033
 30
0.0
  0
SPLINE
  5
144
330
1F
100
AcDbEntity
  8
0
  6
Continuous
 62
     7
370
    25
100
AcDbSpline
210
0.0
220
0.0
230
1.0
 70
     8
 71
     3
 72
    24
 73
    20
 74
     0
 42
0.00000001
 43
0.00000001
 40
0.0
 40
0.0
 40
0.0
 40
0.0
 40
0.0319935283053286
 40
0.0933828385513576
 40
0.1549660585331257
 40
0.2167259049065052
 40
0.2786336506512537
 40
0.3406347951450168
 40
0.4026659071199599
 40
0.4646476810979601
 40
0.5265034314176541
 40
0.5881674725394467
 40
0.6495845425031093
 40
0.7107328105206423
 40
0.7716766095904167
 40
0.8326063916033906
 40
0.893970163423015
 40
0.9567616137434767
 40
0.9999999999999999
 40
0.9999999999999999
 40
0.9999999999999999
 40
0.9999999999999999
 10
391.2296764577582
 20
-237.7989363163033
 30
0.0
 10
391.2252564450417
 20
-238.0264576096071
 30
0.0
 10
391.2123552942231
 20
-238.6905476717226
 30
0.0
 10
391.0665036999903
 20
-239.8704498781551
 30
0.0
 10
390.7371911806961
 20
-241.3345152447234
 30
0.0
 10
390.2464278377058
 20
-242.8337673949642
 30
0.0
 10
389.6063907605362
 20
-244.3308397667842
 30
0.0
 10
388.8299875112883
 20
-245.7912028047212
 30
0.0
 10
387.9350921711957
 20
-247.1803488266758
 30
0.0
 10
386.942914874296
 20
-248.4657758435679
 30
0.0
 10
385.8778207808357
 20
-249.6177424937579
 30
0.0
 10
384.766633678178
 20
-250.6103428403924
 30
0.0
 10
383.6381034159527
 20
-251.4223436671222
 30
0.0
 10
382.5219184983467
 20
-252.0385202760835
 30
0.0
 10
381.4481930675707
 20
-252.4496500564723
 30
0.0
 10
380.4431029818492
 20
-252.6572572584946
 30
0.0
 10
379.5322378738638
 20
-252.6591564583107
 30
0.0
 10
378.8005535889097
 20
-252.5168439079846
 30
0.0
 10
378.4190671778236
 20
-252.2957313558338
 30
0.0
 10
378.2634991101299
 20
-252.2055628688804
 30
0.0
  0
SPLINE
  5
145
330
1F
100
AcDbEntity
  8
0
  6
Continuous
 62
     7
370
    25
100
AcDbSpline
210
0.0
220
0.0
230
1.0
 70
     8
 71
     3
 72
    14
 73
    10
 74
     0
 42
0.00000001
 43
0.00000001
 40
0.0
 40
0.0
 40
0.0
 40
0.0
 40
0.0420071727670004
 40
0.2369146534235391
 40
0.412826799802602
 40
0.5998182561825954
 40
0.7802082568441164
 40
0.9470761912073031
 40
1.0
 40
1.0
 40
1.0
 40
1.0
 10
414.0228573911569
 20
-148.9962120744672
 30
0.0
 10
414.0808590138366
 20
-149.0177079935613
 30
0.0
 10
414.4079801560135
 20
-149.1389420087719
 30
0.0
 10
414.8659602456497
 20
-149.5370699797096
 30
0.0
 10
415.4201691854263
 20
-150.2184952055968
 30
0.0
 10
415.838639478329
 20
-151.0991948645662
 30
0.0
 10
416.1125502534665
 20
-152.1519338309481
 30
0.0
 10
416.2093627009878
 20
-153.0539908246864
 30
0.0
 10
416.2156062252976
 20
-153.5850424729824
 30
0.0
 10
416.217109607918
 20
-153.712914773779
 30
0.0
  0
SPLINE
  5
146
330
1F
100
AcDbEntity
  8
0
  6
Continuous
 62
     7
370
    25
100
AcDbSpline
210
0.0
220
0.0
230
1.0
 70
     8
 71
     3
 72
    24
 73
    20
 74
     0
 42
0.00000001
 43
0.00000001
 40
0.0
 40
0.0
 40
0.0
 40
0.0
 40
0.0319935283053285
 40
0.09338283855137
 40
0.1549660585331372
 40
0.2167259049065189
 40
0.2786336506512654
 40
0.3406347951450277
 40
0.4026659071199693
 40
0.4646476810979666
 40
0.5265034314176604
 40
0.5881674725394552
 40
0.6495845425031153
 40
0.7107328105206495
 40
0.7716766095904206
 40
0.83260639160339
 40
0.8939701634230158
 40
0.9567616137434749
 40
1.0
 40
1.0
 40
1.0
 40
1.0
 10
416.217109607918
 20
-153.712914773779
 30
0.0
 10
416.2126895952017
 20
-153.9404360670828
 30
0.0
 10
416.199788444383
 20
-154.6045261291983
 30
0.0
 10
416.0539368501503
 20
-155.7844283356311
 30
0.0
 10
415.7246243308559
 20
-157.2484937021995
 30
0.0
 10
415.2338609878656
 20
-158.7477458524401
 30
0.0
 10
414.593823910696
 20
-160.2448182242602
 30
0.0
 10
413.8174206614481
 20
-161.7051812621971
 30
0.0
 10
412.9225253213555
 20
-163.0943272841517
 30
0.0
 10
411.9303480244558
 20
-164.3797543010437
 30
0.0
 10
410.8652539309956
 20
-165.5317209512337
 30
0.0
 10
409.7540668283378
 20
-166.5243212978681
 30
0.0
 10
408.6255365661125
 20
-167.336322124598
 30
0.0
 10
407.5093516485066
 20
-167.9524987335593
 30
0.0
 10
406.4356262177307
 20
-168.363628513948
 30
0.0
 10
405.4305361320093
 20
-168.5712357159703
 30
0.0
 10
404.5196710240238
 20
-168.5731349157864
 30
0.0
 10
403.7879867390697
 20
-168.4308223654603
 30
0.0
 10
403.4065003279836
 20
-168.2097098133095
 30
0.0
 10
403.2509322602899
 20
-168.1195413263561
 30
0.0
  0
LWPOLYLINE
  5
147
330
1F
100
AcDbEntity
  8
0
  6
Continuous
 62
     7
370
    25
100
AcDbPolyline
 90
      143
 70
   128
 43
0.0
 10
567.6982242092
 20
-135.6866917301
 10
567.6009845294
 20
-130.6682012373
 10
567.3094558413
 20
-125.7718052198
 10
566.824208826
 20
-121.0070886028
 10
566.1461933773
 20
-116.3833785428
 10
565.2767367423
 20
-111.9097261693
 10
564.2175409231
 20
-107.5948888671
 10
562.9706793454
 20
-103.4473131326
 10
561.5385927991
 20
-99.4751180403
 10
559.9240846611
 20
-95.6860793485
 10
558.1303154068
 20
-92.0876142784
 10
556.1607964236
 20
-88.6867669943
 10
554.0193831377
 20
-85.4901948146
 10
551.7102674659
 20
-82.5041551793
 10
549.2379696106
 20
-79.7344934013
 10
546.6073292111
 20
-77.1866312236
 10
543.8234958695
 20
-74.865556206
 10
540.8919190701
 20
-72.7758119618
 10
537.8183375123
 20
-70.9214892637
 10
534.6087678764
 20
-69.3062180353
 10
531.2694930455
 20
-67.9331602459
 10
527.807049807
 20
-66.8050037206
 10
524.2282160562
 20
-65.9239568788
 10
520.5399975281
 20
-65.2917444111
 10
516.7496140837
 20
-64.909603903
 10
512.8644855767
 20
-64.7782834126
 10
508.8922173284
 20
-64.8980400058
 10
504.8405852406
 20
-65.2686392536
 10
500.7175205734
 20
-65.8893556904
 10
496.5310944193
 20
-66.7589742348
 10
492.2895019043
 20
-67.8757925675
 10
488.0010461448
 20
-69.2376244643
 10
483.6741219944
 20
-70.8418040752
 10
479.3171996103
 20
-72.6851911433
 10
474.9388078727
 20
-74.764177152
 10
470.547517689
 20
-77.0746923883
 10
466.151925216
 20
-79.6122139104
 10
461.7606350323
 20
-82.3717744005
 10
457.3822432947
 20
-85.3479718895
 10
453.0253209106
 20
-88.534980331
 10
448.6983967602
 20
-91.9265610064
 10
444.4099410007
 20
-95.5160747372
 10
440.1683484857
 20
-99.2964948817
 10
435.9819223316
 20
-103.2604210899
 10
431.8588576644
 20
-107.4000937902
 10
427.8072255766
 20
-111.7074093787
 10
423.8349573283
 20
-116.1739360831
 10
419.9498288213
 20
-120.7909304676
 10
416.1594453769
 20
-125.5493545487
 10
412.4712268488
 20
-130.4398934879
 10
408.892393098
 20
-135.4529738256
 10
405.4299498595
 20
-140.5787822216
 10
402.0906750286
 20
-145.8072846653
 10
398.8811053927
 20
-151.1282461176
 10
395.8075238349
 20
-156.5312505465
 10
392.8759470355
 20
-162.0057213172
 10
390.0921136939
 20
-167.5409418961
 10
387.4614732943
 20
-173.1260768289
 10
384.9891754391
 20
-178.7501929518
 10
382.6800597673
 20
-184.4022807933
 10
380.5386464814
 20
-190.071276126
 10
378.5691274982
 20
-195.7460816254
 10
376.7753582439
 20
-201.4155885933
 10
375.1608501059
 20
-207.0686987034
 10
373.7287635596
 20
-212.6943457273
 10
372.4819019819
 20
-218.2815171967
 10
371.4227061627
 20
-223.8192759611
 10
370.5532495277
 20
-229.2967815978
 10
369.875234079
 20
-234.7033116321
 10
369.3899870637
 20
-240.0282825276
 10
369.0984583756
 20
-245.2612704038
 10
369.0012186958
 20
-250.3920314412
 10
369.0984583756
 20
-255.410521934
 10
369.3899870637
 20
-260.3069179515
 10
369.875234079
 20
-265.0716345685
 10
370.5532495277
 20
-269.6953446285
 10
371.4227061627
 20
-274.1689970019
 10
372.4819019819
 20
-278.4838343042
 10
373.7287635596
 20
-282.6314100386
 10
375.1608501059
 20
-286.6036051309
 10
376.7753582439
 20
-290.3926438228
 10
378.5691274982
 20
-293.9911088929
 10
380.5386464814
 20
-297.3919561769
 10
382.6800597673
 20
-300.5885283567
 10
384.9891754391
 20
-303.574567992
 10
387.4614732943
 20
-306.34422977
 10
390.0921136939
 20
-308.8920919477
 10
392.8759470355
 20
-311.2131669653
 10
395.8075238349
 20
-313.3029112094
 10
398.8811053927
 20
-315.1572339075
 10
402.0906750286
 20
-316.772505136
 10
405.4299498595
 20
-318.1455629254
 10
408.892393098
 20
-319.2737194506
 10
412.4712268488
 20
-320.1547662924
 10
416.1594453769
 20
-320.7869787601
 10
419.9498288213
 20
-321.1691192682
 10
423.8349573283
 20
-321.3004397587
 10
427.8072255766
 20
-321.1806831654
 10
431.8588576644
 20
-320.8100839177
 10
435.9819223316
 20
-320.1893674808
 10
440.1683484857
 20
-319.3197489365
 10
444.4099410007
 20
-318.2029306037
 10
448.6983967602
 20
-316.841098707
 10
453.0253209106
 20
-315.2369190961
 10
457.3822432947
 20
-313.3935320279
 10
461.7606350323
 20
-311.3145460193
 10
466.151925216
 20
-309.0040307829
 10
470.547517689
 20
-306.4665092609
 10
474.9388078727
 20
-303.7069487707
 10
479.3171996103
 20
-300.7307512817
 10
483.6741219944
 20
-297.5437428402
 10
488.0010461448
 20
-294.1521621648
 10
492.2895019043
 20
-290.5626484341
 10
496.5310944193
 20
-286.7822282896
 10
500.7175205734
 20
-282.8183020814
 10
504.8405852406
 20
-278.6786293811
 10
508.8922173284
 20
-274.3713137925
 10
512.8644855767
 20
-269.9047870881
 10
516.7496140837
 20
-265.2877927037
 10
520.5399975281
 20
-260.5293686226
 10
524.2282160562
 20
-255.6388296833
 10
527.807049807
 20
-250.6257493456
 10
531.2694930455
 20
-245.4999409496
 10
534.6087678764
 20
-240.2714385059
 10
537.8183375123
 20
-234.9504770537
 10
540.8919190701
 20
-229.5474726247
 10
543.8234958695
 20
-224.073001854
 10
546.6073292111
 20
-218.5377812751
 10
549.2379696106
 20
-212.9526463423
 10
551.7102674659
 20
-207.3285302194
 10
554.0193831377
 20
-201.6764423779
 10
556.1607964236
 20
-196.0074470452
 10
558.1303154068
 20
-190.3326415458
 10
559.9240846611
 20
-184.663134578
 10
561.5385927991
 20
-179.0100244679
 10
562.9706793454
 20
-173.384377444
 10
564.2175409231
 20
-167.7972059745
 10
565.2767367423
 20
-162.2594472101
 10
566.1461933773
 20
-156.7819415735
 10
566.824208826
 20
-151.3754115392
 10
567.3094558413
 20
-146.0504406436
 10
567.6009845294
 20
-140.8174527674
 10
567.6982242092
 20
-135.6866917301
  0
ARC
  5
148
330
1F
100
AcDbEntity
  8
0
  6
Continuous
 62
     7
370
    25
100
AcDbCircle
 10
422.4804163861
 20
-274.1160736846
 30
0.0
 40
48.3353939857622
100
AcDbArc
 50
220.2194523402
 51
258.5953941154
  0
ARC
  5
149
330
1F
100
AcDbEntity
  8
0
  6
Continuous
 62
     7
370
    25
100
AcDbCircle
 10
515.6196899954
 20
-112.7986677409
 30
0.0
 40
48.35868015996412
100
AcDbArc
 50
40.1593649027
 51
79.0410917975
  0
ARC
  5
14A
330
1F
100
AcDbEntity
  8
0
  6
Continuous
 62
     7
370
    25
100
AcDbCircle
 10
530.8566831696
 20
-122.0824753358
 30
0.0
 40
48.79707692410455
100
AcDbArc
 50
40.5576118385
 51
59.8613311038
  0
ARC
  5
14B
330
1F
100
AcDbEntity
  8
0
  6
Continuous
 62
     7
370
    25
100
AcDbCircle
 10
438.215227057
 20
-282.513474552
 30
0.0
 40
48.94523370491927
100
AcDbArc
 50
240.1705966523
 51
259.6928101053
  0
LWPOLYLINE
  5
14C
330
1F
100
AcDbEntity
  8
0
  6
Continuous
 62
     7
370
    25
100
AcDbPolyline
 90
       42
 70
   128
 43
0.0
 10
391.5225696766
 20
-237.3907322604
 10
391.4231257748
 20
-238.9438724486
 10
391.1271249501
 20
-240.5754238323
 10
390.641505211
 20
-242.2471442298
 10
389.9776490727
 20
-243.9198499321
 10
389.1511167603
 20
-245.554334135
 10
388.1812814906
 20
-247.1122859142
 10
387.0908753805
 20
-248.5571882006
 10
385.9054566249
 20
-249.855173709
 10
384.6528104347
 20
-250.9758187594
 10
383.3622977751
 20
-251.8928563816
 10
382.0641671689
 20
-252.5847919909
 10
380.7888456972
 20
-253.0354072031
 10
379.5662258146
 20
-253.2341399796
 10
378.4249646947
 20
-253.1763321925
 10
377.3918125309
 20
-252.8633388073
 10
376.4909855344
 20
-252.3024961238
 10
375.7435983263
 20
-251.5069498191
 10
375.1671690294
 20
-250.4953468243
 10
374.7752086579
 20
-249.2913982561
 10
374.5769044307
 20
-247.9233236487
 10
374.5769044307
 20
-246.4231895112
 10
374.7752086579
 20
-244.8261577165
 10
375.1671690294
 20
-243.1696613362
 10
375.7435983263
 20
-241.4925272414
 10
376.4909855344
 20
-239.8340660339
 10
377.3918125309
 20
-238.2331506388
 10
378.4249646947
 20
-236.7273051559
 10
379.5662258146
 20
-235.3518253272
 10
380.7888456972
 20
-234.1389512341
 10
382.0641671689
 20
-233.1171116172
 10
383.3622977751
 20
-232.3102575312
 10
384.6528104347
 20
-231.7373009519
 10
385.9054566249
 20
-231.411671496
 10
387.0908753805
 20
-231.3410016419
 10
388.1812814906
 20
-231.5269478311
 10
389.1511167603
 20
-231.9651516426
 10
389.9776490727
 20
-232.6453419503
 10
390.641505211
 20
-233.55157567
 10
391.1271249501
 20
-234.6626114513
 10
391.4231257748
 20
-235.9524075573
 10
391.5225696766
 20
-237.3907322604
  0
LWPOLYLINE
  5
14D
330
1F
100
AcDbEntity
  8
0
  6
Continuous
 62
     7
370
    25
100
AcDbPolyline
 90
       42
 70
   128
 43
0.0
 10
537.1600028267
 20
-222.9771151115
 10
537.0605589249
 20
-224.5302552997
 10
536.7645581003
 20
-226.1618066834
 10
536.2789383612
 20
-227.833527081
 10
535.6150822228
 20
-229.5062327832
 10
534.7885499104
 20
-231.1407169861
 10
533.8187146408
 20
-232.6986687654
 10
532.7283085306
 20
-234.1435710517
 10
531.542889775
 20
-235.4415565602
 10
530.2902435849
 20
-236.5622016105
 10
528.9997309253
 20
-237.4792392327
 10
527.701600319
 20
-238.171174842
 10
526.4262788474
 20
-238.6217900542
 10
525.2036589647
 20
-238.8205228307
 10
524.0623978448
 20
-238.7627150436
 10
523.0292456811
 20
-238.4497216585
 10
522.1284186845
 20
-237.888878975
 10
521.3810314765
 20
-237.0933326702
 10
520.8046021796
 20
-236.0817296754
 10
520.4126418081
 20
-234.8777811072
 10
520.2143375808
 20
-233.5097064998
 10
520.2143375808
 20
-232.0095723624
 10
520.4126418081
 20
-230.4125405676
 10
520.8046021796
 20
-228.7560441873
 10
521.3810314765
 20
-227.0789100925
 10
522.1284186845
 20
-225.420448885
 10
523.0292456811
 20
-223.8195334899
 10
524.0623978448
 20
-222.313688007
 10
525.2036589647
 20
-220.9382081784
 10
526.4262788474
 20
-219.7253340852
 10
527.701600319
 20
-218.7034944684
 10
528.9997309253
 20
-217.8966403823
 10
530.2902435849
 20
-217.3236838031
 10
531.542889775
 20
-216.9980543471
 10
532.7283085306
 20
-216.9273844931
 10
533.8187146408
 20
-217.1133306823
 10
534.7885499104
 20
-217.5515344937
 10
535.6150822228
 20
-218.2317248014
 10
536.2789383612
 20
-219.1379585211
 10
536.7645581003
 20
-220.2489943024
 10
537.0605589249
 20
-221.5387904084
 10
537.1600028267
 20
-222.9771151115
  0
LWPOLYLINE
  5
14E
330
1F
100
AcDbEntity
  8
0
  6
Continuous
 62
     7
370
    25
100
AcDbPolyline
 90
       42
 70
   128
 43
0.0
 10
537.1600028267
 20
-83.6549482548
 10
537.0605589249
 20
-85.2080884429
 10
536.7645581003
 20
-86.8396398266
 10
536.2789383612
 20
-88.5113602242
 10
535.6150822229
 20
-90.1840659264
 10
534.7885499104
 20
-91.8185501294
 10
533.8187146408
 20
-93.3765019086
 10
532.7283085306
 20
-94.8214041949
 10
531.542889775
 20
-96.1193897034
 10
530.2902435849
 20
-97.2400347538
 10
528.9997309253
 20
-98.1570723759
 10
527.701600319
 20
-98.8490079852
 10
526.4262788474
 20
-99.2996231974
 10
525.2036589647
 20
-99.4983559739
 10
524.0623978448
 20
-99.4405481868
 10
523.0292456811
 20
-99.1275548017
 10
522.1284186845
 20
-98.5667121182
 10
521.3810314765
 20
-97.7711658135
 10
520.8046021796
 20
-96.7595628186
 10
520.4126418081
 20
-95.5556142505
 10
520.2143375808
 20
-94.1875396431
 10
520.2143375808
 20
-92.6874055056
 10
520.4126418081
 20
-91.0903737109
 10
520.8046021796
 20
-89.4338773305
 10
521.3810314765
 20
-87.7567432358
 10
522.1284186845
 20
-86.0982820283
 10
523.0292456811
 20
-84.4973666331
 10
524.0623978448
 20
-82.9915211503
 10
525.2036589647
 20
-81.6160413216
 10
526.4262788474
 20
-80.4031672285
 10
527.701600319
 20
-79.3813276116
 10
528.9997309253
 20
-78.5744735256
 10
530.2902435849
 20
-78.0015169463
 10
531.542889775
 20
-77.6758874904
 10
532.7283085306
 20
-77.6052176363
 10
533.8187146408
 20
-77.7911638255
 10
534.7885499104
 20
-78.2293676369
 10
535.6150822229
 20
-78.9095579446
 10
536.2789383612
 20
-79.8157916643
 10
536.7645581003
 20
-80.9268274457
 10
537.0605589249
 20
-82.2166235517
 10
537.1600028267
 20
-83.6549482548
  0
LWPOLYLINE
  5
14F
330
1F
100
AcDbEntity
  8
0
  6
Continuous
 62
     7
370
    25
100
AcDbPolyline
 90
       42
 70
   128
 43
0.0
 10
476.8350028267
 20
-89.6252639607
 10
476.7355589249
 20
-91.1784041489
 10
476.4395581003
 20
-92.8099555325
 10
475.9539383612
 20
-94.4816759301
 10
475.2900822229
 20
-96.1543816323
 10
474.4635499104
 20
-97.7888658353
 10
473.4937146408
 20
-99.3468176145
 10
472.4033085306
 20
-100.7917199009
 10
471.217889775
 20
-102.0897054093
 10
469.9652435849
 20
-103.2103504597
 10
468.6747309253
 20
-104.1273880819
 10
467.376600319
 20
-104.8193236911
 10
466.1012788474
 20
-105.2699389034
 10
464.8786589647
 20
-105.4686716798
 10
463.7373978448
 20
-105.4108638927
 10
462.7042456811
 20
-105.0978705076
 10
461.8034186845
 20
-104.5370278241
 10
461.0560314765
 20
-103.7414815194
 10
460.4796021796
 20
-102.7298785245
 10
460.0876418081
 20
-101.5259299564
 10
459.8893375808
 20
-100.157855349
 10
459.8893375808
 20
-98.6577212115
 10
460.0876418081
 20
-97.0606894168
 10
460.4796021796
 20
-95.4041930364
 10
461.0560314765
 20
-93.7270589417
 10
461.8034186845
 20
-92.0685977342
 10
462.7042456811
 20
-90.467682339
 10
463.7373978448
 20
-88.9618368562
 10
464.8786589647
 20
-87.5863570275
 10
466.1012788474
 20
-86.3734829344
 10
467.376600319
 20
-85.3516433175
 10
468.6747309253
 20
-84.5447892315
 10
469.9652435849
 20
-83.9718326522
 10
471.217889775
 20
-83.6462031963
 10
472.4033085306
 20
-83.5755333422
 10
473.4937146408
 20
-83.7614795314
 10
474.4635499104
 20
-84.1996833428
 10
475.2900822229
 20
-84.8798736505
 10
475.9539383612
 20
-85.7861073702
 10
476.4395581003
 20
-86.8971431516
 10
476.7355589249
 20
-88.1869392576
 10
476.8350028267
 20
-89.6252639607
  0
LWPOLYLINE
  5
150
330
1F
100
AcDbEntity
  8
0
  6
Continuous
 62
     7
370
    25
100
AcDbPolyline
 90
      114
 70
   128
 43
0.0
 10
531.9893317593
 20
-156.3009965536
 10
531.8909785651
 20
-160.4418901856
 10
531.5962229865
 20
-164.6835407336
 10
531.1059760963
 20
-169.0128374988
 10
530.4217532193
 20
-173.4163988731
 10
529.5456692493
 20
-177.8806137006
 10
528.4804321117
 20
-182.3916833491
 10
527.2293343935
 20
-186.9356643608
 10
525.7962431658
 20
-191.4985115509
 10
524.1855880317
 20
-196.0661214201
 10
522.4023474338
 20
-200.6243757481
 10
520.4520332666
 20
-205.159185232
 10
518.3406738395
 20
-209.6565330356
 10
516.0747952434
 20
-214.1025181146
 10
513.6614011792
 20
-218.4833981838
 10
511.1079513097
 20
-222.7856321939
 10
508.4223382021
 20
-226.9959221864
 10
505.6128629326
 20
-231.101254396
 10
502.6882094282
 20
-235.0889394761
 10
499.6574176254
 20
-238.9466517208
 10
496.5298555278
 20
-242.6624671625
 10
493.3151902508
 20
-246.2249004286
 10
490.0233581404
 20
-249.6229402421
 10
486.6645340611
 20
-252.8460834567
 10
483.2490999456
 20
-255.8843675213
 10
479.787612705
 20
-258.7284012741
 10
476.2907715981
 20
-261.3693939697
 10
472.7693851602
 20
-263.799182451
 10
469.2343377951
 20
-266.0102563811
 10
465.6965561315
 20
-267.9957814572
 10
462.1669752499
 20
-269.7496205351
 10
458.6565048826
 20
-271.2663525986
 10
455.1759956921
 20
-272.5412895159
 10
451.736205733
 20
-273.5704905301
 10
448.3477671989
 20
-274.3507744397
 10
445.0211535592
 20
-274.879729432
 10
441.7666471859
 20
-275.1557205373
 10
438.5943075717
 20
-275.1778946831
 10
435.5139402366
 20
-274.9461833301
 10
432.5350664196
 20
-274.4613026851
 10
429.6668936488
 20
-273.7247514862
 10
426.9182872819
 20
-272.738806371
 10
424.2977431037
 20
-271.5065148394
 10
421.813361066
 20
-270.0316858339
 10
419.4728202514
 20
-268.3188779663
 10
417.2833551374
 20
-266.3733854277
 10
415.2517332352
 20
-264.2012216241
 10
413.3842341716
 20
-261.8091005891
 10
411.6866302793
 20
-259.2044162319
 10
410.1641687546
 20
-256.3952194826
 10
408.8215554388
 20
-253.3901934073
 10
407.6629402727
 20
-250.1986263694
 10
406.6919044694
 20
-246.8303833198
 10
405.9114494449
 20
-243.2958753046
 10
405.3239875411
 20
-239.6060272855
 10
404.9313345689
 20
-235.7722443714
 10
404.7347041962
 20
-231.8063765656
 10
404.7347041962
 20
-227.7206821381
 10
404.9313345689
 20
-223.5277897362
 10
405.3239875411
 20
-219.2406593502
 10
405.9114494449
 20
-214.8725422543
 10
406.6919044694
 20
-210.4369400482
 10
407.6629402727
 20
-205.9475629241
 10
408.8215554388
 20
-201.4182872893
 10
410.1641687546
 20
-196.8631128754
 10
411.6866302793
 20
-192.2961194654
 10
413.3842341716
 20
-187.7314233742
 10
415.2517332352
 20
-183.1831338158
 10
417.2833551374
 20
-178.6653092926
 10
419.4728202514
 20
-174.1919141413
 10
421.813361066
 20
-169.77677537
 10
424.2977431037
 20
-165.4335399195
 10
426.9182872819
 20
-161.1756324818
 10
429.6668936488
 20
-157.0162140047
 10
432.5350664196
 20
-152.9681410123
 10
435.5139402366
 20
-149.0439258664
 10
438.5943075717
 20
-145.255698091
 10
441.7666471859
 20
-141.6151668811
 10
445.0211535592
 20
-138.13358491
 10
448.3477671989
 20
-134.8217135481
 10
451.736205733
 20
-131.6897896
 10
455.1759956921
 20
-128.747493663
 10
458.6565048826
 20
-126.0039202054
 10
462.1669752499
 20
-123.4675494555
 10
465.6965561315
 20
-121.1462211899
 10
469.2343377951
 20
-119.0471105012
 10
472.7693851602
 20
-117.1767056202
 10
476.2907715981
 20
-115.5407878614
 10
479.787612705
 20
-114.1444137527
 10
483.2490999456
 20
-112.9918994064
 10
486.6645340611
 20
-112.0868071784
 10
490.0233581404
 20
-111.4319346569
 10
493.3151902508
 20
-111.0293060152
 10
496.5298555278
 20
-110.8801657556
 10
499.6574176254
 20
-110.9849748619
 10
502.6882094282
 20
-111.3434093752
 10
505.6128629326
 20
-111.954361395
 10
508.4223382021
 20
-112.8159425036
 10
511.1079513097
 20
-113.9254896031
 10
513.6614011792
 20
-115.2795731471
 10
516.0747952434
 20
-116.874007741
 10
518.3406738395
 20
-118.7038650787
 10
520.4520332666
 20
-120.7634891761
 10
522.4023474338
 20
-123.0465138532
 10
524.1855880317
 20
-125.5458824115
 10
525.7962431658
 20
-128.2538694461
 10
527.2293343935
 20
-131.1621047241
 10
528.4804321117
 20
-134.261599057
 10
529.5456692493
 20
-137.5427720855
 10
530.4217532193
 20
-140.9954818918
 10
531.1059760963
 20
-144.6090563477
 10
531.5962229865
 20
-148.3723261017
 10
531.8909785651
 20
-152.2736591025
 10
531.9893317593
 20
-156.3009965536
  0
LWPOLYLINE
  5
151
330
1F
100
AcDbEntity
  8
0
  6
Continuous
 62
     7
370
    25
100
AcDbPolyline
 90
       42
 70
   128
 43
0.0
 10
476.8350028267
 20
-286.6565618687
 10
476.7355589249
 20
-288.2097020569
 10
476.4395581003
 20
-289.8412534406
 10
475.9539383612
 20
-291.5129738382
 10
475.2900822228
 20
-293.1856795404
 10
474.4635499104
 20
-294.8201637433
 10
473.4937146408
 20
-296.3781155226
 10
472.4033085306
 20
-297.8230178089
 10
471.217889775
 20
-299.1210033174
 10
469.9652435849
 20
-300.2416483677
 10
468.6747309253
 20
-301.1586859899
 10
467.376600319
 20
-301.8506215992
 10
466.1012788474
 20
-302.3012368114
 10
464.8786589647
 20
-302.4999695879
 10
463.7373978448
 20
-302.4421618008
 10
462.7042456811
 20
-302.1291684157
 10
461.8034186845
 20
-301.5683257321
 10
461.0560314765
 20
-300.7727794274
 10
460.4796021796
 20
-299.7611764326
 10
460.0876418081
 20
-298.5572278644
 10
459.8893375808
 20
-297.189153257
 10
459.8893375808
 20
-295.6890191196
 10
460.0876418081
 20
-294.0919873248
 10
460.4796021796
 20
-292.4354909445
 10
461.0560314765
 20
-290.7583568497
 10
461.8034186845
 20
-289.0998956422
 10
462.7042456811
 20
-287.4989802471
 10
463.7373978448
 20
-285.9931347642
 10
464.8786589647
 20
-284.6176549356
 10
466.1012788474
 20
-283.4047808424
 10
467.376600319
 20
-282.3829412256
 10
468.6747309253
 20
-281.5760871395
 10
469.9652435849
 20
-281.0031305603
 10
471.217889775
 20
-280.6775011043
 10
472.4033085306
 20
-280.6068312503
 10
473.4937146408
 20
-280.7927774395
 10
474.4635499104
 20
-281.2309812509
 10
475.2900822228
 20
-281.9111715586
 10
475.9539383612
 20
-282.8174052783
 10
476.4395581003
 20
-283.9284410596
 10
476.7355589249
 20
-285.2182371656
 10
476.8350028267
 20
-286.6565618687
  0
LWPOLYLINE
  5
152
330
1F
100
AcDbEntity
  8
0
  6
Continuous
 62
     7
370
    25
100
AcDbPolyline
 90
       42
 70
   128
 43
0.0
 10
562.1474359769
 20
-138.891093569
 10
562.0479920751
 20
-140.4442337572
 10
561.7519912504
 20
-142.0757851409
 10
561.2663715114
 20
-143.7475055384
 10
560.602515373
 20
-145.4202112407
 10
559.7759830606
 20
-147.0546954436
 10
558.8061477909
 20
-148.6126472228
 10
557.7157416808
 20
-150.0575495092
 10
556.5303229252
 20
-151.3555350176
 10
555.2776767351
 20
-152.476180068
 10
553.9871640754
 20
-153.3932176902
 10
552.6890334692
 20
-154.0851532995
 10
551.4137119975
 20
-154.5357685117
 10
550.1910921149
 20
-154.7345012882
 10
549.049830995
 20
-154.6766935011
 10
548.0166788312
 20
-154.3637001159
 10
547.1158518347
 20
-153.8028574324
 10
546.3684646266
 20
-153.0073111277
 10
545.7920353298
 20
-151.9957081329
 10
545.4000749582
 20
-150.7917595647
 10
545.201770731
 20
-149.4236849573
 10
545.201770731
 20
-147.9235508198
 10
545.4000749582
 20
-146.3265190251
 10
545.7920353298
 20
-144.6700226448
 10
546.3684646266
 20
-142.99288855
 10
547.1158518347
 20
-141.3344273425
 10
548.0166788312
 20
-139.7335119473
 10
549.049830995
 20
-138.2276664645
 10
550.1910921149
 20
-136.8521866358
 10
551.4137119975
 20
-135.6393125427
 10
552.6890334692
 20
-134.6174729258
 10
553.9871640754
 20
-133.8106188398
 10
555.2776767351
 20
-133.2376622605
 10
556.5303229252
 20
-132.9120328046
 10
557.7157416808
 20
-132.8413629505
 10
558.8061477909
 20
-133.0273091397
 10
559.7759830606
 20
-133.4655129512
 10
560.602515373
 20
-134.1457032589
 10
561.2663715114
 20
-135.0519369785
 10
561.7519912504
 20
-136.1629727599
 10
562.0479920751
 20
-137.4527688659
 10
562.1474359769
 20
-138.891093569
  0
LWPOLYLINE
  5
153
330
1F
100
AcDbEntity
  8
0
  6
Continuous
 62
     7
370
    25
100
AcDbPolyline
 90
       42
 70
   128
 43
0.0
 10
416.5100028267
 20
-292.6268775746
 10
416.4105589249
 20
-294.1800177628
 10
416.1145581003
 20
-295.8115691465
 10
415.6289383612
 20
-297.4832895441
 10
414.9650822228
 20
-299.1559952463
 10
414.1385499104
 20
-300.7904794492
 10
413.1687146408
 20
-302.3484312285
 10
412.0783085306
 20
-303.7933335148
 10
410.892889775
 20
-305.0913190233
 10
409.6402435849
 20
-306.2119640737
 10
408.3497309253
 20
-307.1290016958
 10
407.051600319
 20
-307.8209373051
 10
405.7762788474
 20
-308.2715525173
 10
404.5536589647
 20
-308.4702852938
 10
403.4123978448
 20
-308.4124775067
 10
402.3792456811
 20
-308.0994841216
 10
401.4784186845
 20
-307.5386414381
 10
400.7310314765
 20
-306.7430951333
 10
400.1546021796
 20
-305.7314921385
 10
399.7626418081
 20
-304.5275435704
 10
399.5643375808
 20
-303.1594689629
 10
399.5643375808
 20
-301.6593348255
 10
399.7626418081
 20
-300.0623030307
 10
400.1546021796
 20
-298.4058066504
 10
400.7310314765
 20
-296.7286725556
 10
401.4784186845
 20
-295.0702113481
 10
402.3792456811
 20
-293.469295953
 10
403.4123978448
 20
-291.9634504702
 10
404.5536589647
 20
-290.5879706415
 10
405.7762788474
 20
-289.3750965483
 10
407.051600319
 20
-288.3532569315
 10
408.3497309253
 20
-287.5464028454
 10
409.6402435849
 20
-286.9734462662
 10
410.892889775
 20
-286.6478168103
 10
412.0783085306
 20
-286.5771469562
 10
413.1687146408
 20
-286.7630931454
 10
414.1385499104
 20
-287.2012969568
 10
414.9650822228
 20
-287.8814872645
 10
415.6289383612
 20
-288.7877209842
 10
416.1145581003
 20
-289.8987567656
 10
416.4105589249
 20
-291.1885528715
 10
416.5100028267
 20
-292.6268775746
  0
LWPOLYLINE
  5
154
330
1F
100
AcDbEntity
  8
0
  6
Continuous
 62
     7
370
    25
100
AcDbPolyline
 90
       42
 70
   128
 43
0.0
 10
416.5100028267
 20
-153.3047107179
 10
416.4105589249
 20
-154.8578509061
 10
416.1145581003
 20
-156.4894022897
 10
415.6289383612
 20
-158.1611226873
 10
414.9650822228
 20
-159.8338283895
 10
414.1385499104
 20
-161.4683125925
 10
413.1687146408
 20
-163.0262643717
 10
412.0783085306
 20
-164.4711666581
 10
410.892889775
 20
-165.7691521665
 10
409.6402435849
 20
-166.8897972169
 10
408.3497309253
 20
-167.806834839
 10
407.051600319
 20
-168.4987704483
 10
405.7762788474
 20
-168.9493856606
 10
404.5536589647
 20
-169.148118437
 10
403.4123978448
 20
-169.0903106499
 10
402.3792456811
 20
-168.7773172648
 10
401.4784186845
 20
-168.2164745813
 10
400.7310314765
 20
-167.4209282766
 10
400.1546021796
 20
-166.4093252817
 10
399.7626418081
 20
-165.2053767136
 10
399.5643375808
 20
-163.8373021062
 10
399.5643375808
 20
-162.3371679687
 10
399.7626418081
 20
-160.740136174
 10
400.1546021796
 20
-159.0836397936
 10
400.7310314765
 20
-157.4065056989
 10
401.4784186845
 20
-155.7480444914
 10
402.3792456811
 20
-154.1471290962
 10
403.4123978448
 20
-152.6412836134
 10
404.5536589647
 20
-151.2658037847
 10
405.7762788474
 20
-150.0529296916
 10
407.051600319
 20
-149.0310900747
 10
408.3497309253
 20
-148.2242359887
 10
409.6402435849
 20
-147.6512794094
 10
410.892889775
 20
-147.3256499535
 10
412.0783085306
 20
-147.2549800994
 10
413.1687146408
 20
-147.4409262886
 10
414.1385499104
 20
-147.8791301
 10
414.9650822228
 20
-148.5593204077
 10
415.6289383612
 20
-149.4655541274
 10
416.1145581003
 20
-150.5765899088
 10
416.4105589249
 20
-151.8663860148
 10
416.5100028267
 20
-153.3047107179
  0
LWPOLYLINE
  5
155
330
1F
100
AcDbEntity
  8
0
  6
Continuous
 62
     7
370
    25
100
AcDbPolyline
 90
        3
 70
   128
 43
0.0
 10
534.8813812632
 20
-218.7572303522
 10
534.7699592001
 20
-218.6954624895
 10
534.6385619546
 20
-218.6289174831
  0
ARC
  5
156
330
1F
100
AcDbEntity
  8
0
  6
Continuous
 62
     7
370
    25
100
AcDbCircle
 10
498.3851712309
 20
-142.6342547564
 30
0.0
 40
30.32205344269484
100
AcDbArc
 50
43.0584960039
 51
78.688666386
  0
ARC
  5
157
330
1F
100
AcDbEntity
  8
0
  6
Continuous
 62
     7
370
    25
100
AcDbCircle
 10
439.7263270687
 20
-244.2618150675
 30
0.0
 40
30.32147832740969
100
AcDbArc
 50
221.9782169382
 51
259.0203488946
  0
LINE
  5
158
330
1F
100
AcDbEntity
  8
0
  6
Continuous
 62
     7
370
    25
100
AcDbLine
 10
433.023499584
 20
-273.8297828823
 30
0.0
 11
432.1940199513
 21
-272.9028076366
 31
0.0
  0
LINE
  5
159
330
1F
100
AcDbEntity
  8
0
  6
Continuous
 62
     7
370
    25
100
AcDbLine
 10
519.758181043
 20
-121.8552373515
 30
0.0
 11
520.5700779305
 21
-122.0284192374
 31
0.0
  0
LWPOLYLINE
  5
15A
330
1F
100
AcDbEntity
  8
0
  6
Continuous
 62
     7
370
    25
100
AcDbPolyline
 90
        3
 70
   128
 43
0.0
 10
559.8688144133
 20
-134.6712088096
 10
559.7573923503
 20
-134.609440947
 10
559.6259951048
 20
-134.5428959406
  0
LWPOLYLINE
  5
15B
330
1F
100
AcDbEntity
  8
0
  6
Continuous
 62
     7
370
    25
100
AcDbPolyline
 90
        3
 70
   128
 43
0.0
 10
474.5563812632
 20
-282.4366771094
 10
474.4449592001
 20
-282.3749092467
 10
474.3135619546
 20
-282.3083642403
  0
LWPOLYLINE
  5
15C
330
1F
100
AcDbEntity
  8
0
  6
Continuous
 62
     7
370
    25
100
AcDbPolyline
 90
        3
 70
   128
 43
0.0
 10
534.8813812632
 20
-79.4350634954
 10
534.7699592001
 20
-79.3732956328
 10
534.6385619546
 20
-79.3067506263
  0
LWPOLYLINE
  5
15D
330
1F
100
AcDbEntity
  8
0
  6
Continuous
 62
     7
370
    25
100
AcDbPolyline
 90
        3
 70
   128
 43
0.0
 10
414.2313812632
 20
-288.4069928153
 10
414.1199592001
 20
-288.3452249527
 10
413.9885619546
 20
-288.2786799462
  0
LWPOLYLINE
  5
15E
330
1F
100
AcDbEntity
  8
0
  6
Continuous
 62
     7
370
    25
100
AcDbPolyline
 90
        3
 70
   128
 43
0.0
 10
474.5563812632
 20
-85.4053792013
 10
474.4449592001
 20
-85.3436113387
 10
474.3135619546
 20
-85.2770663323
  0
LWPOLYLINE
  5
15F
330
1F
100
AcDbEntity
  8
0
  6
Continuous
 62
     7
370
    25
100
AcDbPolyline
 90
        3
 70
   128
 43
0.0
 10
389.243948113
 20
-233.1708475011
 10
389.13252605
 20
-233.1090796384
 10
389.0011288044
 20
-233.042534632
  0
LWPOLYLINE
  5
160
330
1F
100
AcDbEntity
  8
0
  6
Continuous
 62
     7
370
    25
100
AcDbPolyline
 90
        3
 70
   128
 43
0.0
 10
414.2313812632
 20
-149.0848259585
 10
414.1199592001
 20
-149.0230580959
 10
413.9885619546
 20
-148.9565130895
  0
LWPOLYLINE
  5
161
330
1F
100
AcDbEntity
  8
0
  6
Continuous
 62
     1
370
    25
100
AcDbPolyline
 90
       50
 70
   128
 43
0.0
 10
569.1124377716
 20
-135.6866917301
 10
569.0145059944
 20
-140.8539706396
 10
568.7209023691
 20
-146.1242039811
 10
568.2322016383
 20
-151.4870750254
 10
567.5493604569
 20
-156.9320857005
 10
566.6737155184
 20
-162.4485771423
 10
565.6069809389
 20
-168.0257505599
 10
564.3512449016
 20
-173.6526883743
 10
562.9089655686
 20
-179.3183755906
 10
561.2829662694
 20
-185.0117213598
 10
559.4764299741
 20
-190.7215806904
 10
557.4928930623
 20
-196.4367762645
 10
555.3362384006
 20
-202.1461203185
 10
553.0106877418
 20
-207.8384365432
 10
550.5207934606
 20
-213.5025819623
 10
547.8714296418
 20
-219.1274687452
 10
545.0677825397
 20
-224.7020859119
 10
542.1153404251
 20
-230.2155208873
 10
539.019882842
 20
-235.6569808638
 10
535.787469294
 20
-241.0158139278
 10
532.4244273825
 20
-246.281529912
 10
528.9373404199
 20
-251.4438209301
 10
525.3330345427
 20
-256.4925815549
 10
521.618565349
 20
-261.4179286004
 10
517.8012040865
 20
-266.2102204686
 10
513.8884234192
 20
-270.860076023
 10
509.8878827991
 20
-275.3583929531
 10
505.8074134723
 20
-279.6963655921
 10
501.655003149
 20
-283.865502155
 10
497.4387803675
 20
-287.8576413612
 10
493.1669985819
 20
-291.6649684106
 10
488.8480200057
 20
-295.2800302818
 10
484.4902992421
 20
-298.6957503214
 10
480.1023667343
 20
-301.9054420971
 10
475.6928120662
 20
-304.9028224863
 10
471.270267148
 20
-307.6820239764
 10
466.8433893193
 20
-310.2376061498
 10
462.4208444012
 20
-312.5645663345
 10
458.0112897331
 20
-314.6583493966
 10
453.6233572253
 20
-316.5148566574
 10
449.2656364617
 20
-318.1304539168
 10
444.9466578854
 20
-319.5019785673
 10
440.6748760998
 20
-320.6267457849
 10
436.4586533184
 20
-321.5025537851
 10
432.3062429951
 20
-322.1276881325
 10
428.2257736682
 20
-322.5009250973
 10
424.2252330481
 20
-322.6215340507
 10
420.3124523809
 20
-322.4892788948
 10
416.4950911184
 20
-322.1044185255
 10
412.922762075
 20
-321.4970989566
  0
LWPOLYLINE
  5
162
330
1F
100
AcDbEntity
  8
0
  6
Continuous
 62
     1
370
    25
100
AcDbPolyline
 90
       15
 70
   128
 43
0.0
 10
552.5779856688
 20
-81.6113894413
 10
553.0106877418
 20
-82.1256317875
 10
555.3362384006
 20
-85.1329243739
 10
557.4928930623
 20
-88.352247957
 10
559.4764299741
 20
-91.7773005599
 10
561.2829662694
 20
-95.401377481
 10
562.9089655686
 20
-99.2173844197
 10
564.3512449016
 20
-103.2178513633
 10
565.6069809389
 20
-107.3949472097
 10
566.6737155184
 20
-111.7404950977
 10
567.5493604569
 20
-116.2459884133
 10
568.2322016383
 20
-120.9026074417
 10
568.7209023691
 20
-125.7012366325
 10
569.0145059944
 20
-130.6324824437
 10
569.1124377716
 20
-135.6866917301
  0
LWPOLYLINE
  5
163
330
1F
100
AcDbEntity
  8
0
  6
Continuous
 62
     1
370
    25
100
AcDbPolyline
 90
       15
 70
   128
 43
0.0
 10
584.6687869577
 20
-144.6671809601
 10
584.5708551805
 20
-139.6129716738
 10
584.2772515552
 20
-134.6817258626
 10
583.7885508244
 20
-129.8830966718
 10
583.105709643
 20
-125.2264776434
 10
582.2300647045
 20
-120.7209843278
 10
581.163330125
 20
-116.3754364397
 10
579.9075940877
 20
-112.1983405933
 10
578.4653147547
 20
-108.1978736498
 10
576.8393154555
 20
-104.3818667111
 10
575.0327791602
 20
-100.7577897899
 10
573.0492422484
 20
-97.3327371871
 10
570.8925875867
 20
-94.1134136039
 10
568.5670369279
 20
-91.1061210175
 10
567.9303868304
 20
-90.3540147175
  0
LWPOLYLINE
  5
164
330
1F
100
AcDbEntity
  8
0
  6
Continuous
 62
     1
370
    25
100
AcDbPolyline
 90
       50
 70
   128
 43
0.0
 10
429.4576678913
 20
-330.6688590889
 10
432.0514403045
 20
-331.0849077555
 10
435.868801567
 20
-331.4697681249
 10
439.7815822342
 20
-331.6020232807
 10
443.7821228543
 20
-331.4814143274
 10
447.8625921812
 20
-331.1081773626
 10
452.0150025045
 20
-330.4830430151
 10
456.2312252859
 20
-329.607235015
 10
460.5030070715
 20
-328.4824677973
 10
464.8219856478
 20
-327.1109431468
 10
469.1797064114
 20
-325.4953458874
 10
473.5676389192
 20
-323.6388386266
 10
477.9771935873
 20
-321.5450555646
 10
482.3997385054
 20
-319.2180953799
 10
486.8266163341
 20
-316.6625132065
 10
491.2491612523
 20
-313.8833117164
 10
495.6587159204
 20
-310.8859313271
 10
500.0466484282
 20
-307.6762395515
 10
504.4043691918
 20
-304.2605195118
 10
508.723347768
 20
-300.6454576406
 10
512.9951295536
 20
-296.8381305912
 10
517.2113523351
 20
-292.8459913851
 10
521.3637626584
 20
-288.6768548222
 10
525.4442319852
 20
-284.3388821831
 10
529.4447726053
 20
-279.8405652531
 10
533.3575532726
 20
-275.1907096987
 10
537.1749145351
 20
-270.3984178305
 10
540.8893837288
 20
-265.4730707849
 10
544.493689606
 20
-260.4243101601
 10
547.9807765686
 20
-255.2620191421
 10
551.3438184801
 20
-249.9963031579
 10
554.5762320281
 20
-244.6374700939
 10
557.6716896112
 20
-239.1960101174
 10
560.6241317258
 20
-233.6825751419
 10
563.427778828
 20
-228.1079579753
 10
566.0771426467
 20
-222.4830711924
 10
568.5670369279
 20
-216.8189257733
 10
570.8925875867
 20
-211.1266095486
 10
573.0492422484
 20
-205.4172654946
 10
575.0327791602
 20
-199.7020699204
 10
576.8393154555
 20
-193.9922105899
 10
578.4653147547
 20
-188.2988648206
 10
579.9075940877
 20
-182.6331776044
 10
581.163330125
 20
-177.00623979
 10
582.2300647045
 20
-171.4290663724
 10
583.105709643
 20
-165.9125749305
 10
583.7885508244
 20
-160.4675642554
 10
584.2772515552
 20
-155.1046932111
 10
584.5708551805
 20
-149.8344598696
 10
584.6687869577
 20
-144.6671809601
  0
LWPOLYLINE
  5
165
330
1F
100
AcDbEntity
  8
0
  6
Continuous
 62
     1
370
    25
100
AcDbPolyline
 90
       21
 70
   128
 43
0.0
 10
534.6385619546
 20
-218.6289174831
 10
533.8003350139
 20
-218.3410191141
 10
532.716273823
 20
-218.2440877079
 10
531.5458522429
 20
-218.4071787435
 10
530.3193835776
 20
-218.8260682487
 10
529.0686327214
 20
-219.4899072054
 10
527.8259934644
 20
-220.3815025332
 10
526.6236495107
 20
-221.4777623816
 10
525.4927409372
 20
-222.7502941964
 10
524.4625576817
 20
-224.1661400718
 10
523.5597809496
 20
-225.6886303435
 10
522.807792184
 20
-227.2783333131
 10
522.2260674989
 20
-228.8940765089
 10
521.829673258
 20
-230.4940130306
 10
521.6288758641
 20
-232.0367053629
 10
521.6288758641
 20
-233.4821985845
 10
521.829673258
 20
-234.7930551805
 10
522.2260674989
 20
-235.9353246535
 10
522.807792184
 20
-236.8794228242
 10
523.5597809496
 20
-237.6008980458
 10
523.8891045473
 20
-237.8142380425
  0
LWPOLYLINE
  5
166
330
1F
100
AcDbEntity
  8
0
  6
Continuous
 62
     1
370
    25
100
AcDbPolyline
 90
       52
 70
   128
 43
0.0
 10
504.332542271
 20
-112.9011805344
 10
503.0137774541
 20
-112.6593462334
 10
500.0166611157
 20
-112.3048943258
 10
496.9238497082
 20
-112.2012497651
 10
493.7449029342
 20
-112.3487329108
 10
490.4896467362
 20
-112.7468879009
 10
487.1681429244
 20
-113.394484061
 10
483.7906580769
 20
-114.2895197087
 10
480.3676318056
 20
-115.42922834
 10
476.9096444887
 20
-116.8100871809
 10
473.4273845668
 20
-118.4278280758
 10
469.9316155058
 20
-120.2774506802
 10
466.4331425274
 20
-122.3532379168
 10
462.9427792112
 20
-124.6487736462
 10
459.4713140701
 20
-127.1569624989
 10
456.029477204
 20
-129.870051807
 10
452.6279071333
 20
-132.7796555668
 10
449.2771179163
 20
-135.87678036
 10
445.9874666503
 20
-139.1518531512
 10
442.7691214589
 20
-142.5947508781
 10
439.6320300627
 20
-146.1948317413
 10
436.5858890313
 20
-149.940968097
 10
433.6401138122
 20
-153.8215808524
 10
430.8038096278
 20
-157.8246752559
 10
428.0857433316
 20
-161.9378779722
 10
425.4943163109
 20
-166.1484753273
 10
423.0375385181
 20
-170.4434526061
 10
420.7230037126
 20
-174.80953428
 10
418.5578659888
 20
-179.2332250407
 10
416.5488176632
 20
-183.7008515136
 10
414.7020685893
 20
-188.1986045213
 10
413.0233269624
 20
-192.7125817671
 10
411.5177816769
 20
-197.2288308059
 10
410.1900862868
 20
-201.7333921708
 10
409.0443446225
 20
-206.2123425207
 10
408.084098106
 20
-210.6518376767
 10
407.312314804
 20
-215.0381554139
 10
406.7313802546
 20
-219.3577378754
 10
406.3430900932
 20
-223.5972334794
 10
406.1486445024
 20
-227.7435381878
 10
406.1486445024
 20
-231.7838360106
 10
406.3430900932
 20
-235.7056386186
 10
406.7313802546
 20
-239.4968239448
 10
407.312314804
 20
-243.1456736525
 10
408.084098106
 20
-246.6409093564
 10
409.0443446225
 20
-249.9717274833
 10
410.1900862868
 20
-253.1278326652
 10
411.5177816769
 20
-256.0994695619
 10
413.0233269624
 20
-258.877453014
 10
414.7020685893
 20
-261.4531964339
 10
416.5488176632
 20
-263.8187383462
 10
417.1853653697
 20
-264.5422759509
  0
LWPOLYLINE
  5
167
330
1F
100
AcDbEntity
  8
0
  6
Continuous
 62
     1
370
    25
100
AcDbPolyline
 90
       52
 70
   128
 43
0.0
 10
432.1940199513
 20
-272.9028076366
 10
432.1051668493
 20
-272.7992275763
 10
430.2584177754
 20
-270.4336856639
 10
428.5796761485
 20
-267.8579422441
 10
427.074130863
 20
-265.079958792
 10
425.7464354729
 20
-262.1083218953
 10
424.6006938086
 20
-258.9522167134
 10
423.6404472921
 20
-255.6213985865
 10
422.8686639901
 20
-252.1261628825
 10
422.2877294407
 20
-248.4773131748
 10
421.8994392793
 20
-244.6861278487
 10
421.7049936885
 20
-240.7643252406
 10
421.7049936885
 20
-236.7240274179
 10
421.8994392793
 20
-232.5777227094
 10
422.2877294407
 20
-228.3382271054
 10
422.8686639901
 20
-224.018644644
 10
423.6404472921
 20
-219.6323269068
 10
424.6006938086
 20
-215.1928317507
 10
425.7464354729
 20
-210.7138814008
 10
427.074130863
 20
-206.2093200359
 10
428.5796761485
 20
-201.6930709971
 10
430.2584177754
 20
-197.1790937514
 10
432.1051668493
 20
-192.6813407437
 10
434.1142151749
 20
-188.2137142707
 10
436.2793528987
 20
-183.79002351
 10
438.5938877043
 20
-179.4239418361
 10
441.050665497
 20
-175.1289645573
 10
443.6420925177
 20
-170.9183672022
 10
446.3601588139
 20
-166.805164486
 10
449.1964629983
 20
-162.8020700824
 10
452.1422382174
 20
-158.921457327
 10
455.1883792488
 20
-155.1753209713
 10
458.325470645
 20
-151.5752401082
 10
461.5438158364
 20
-148.1323423812
 10
464.8334671024
 20
-144.85726959
 10
468.1842563194
 20
-141.7601447969
 10
471.5858263901
 20
-138.850541037
 10
475.0276632562
 20
-136.137451729
 10
478.4991283973
 20
-133.6292628762
 10
481.9894917135
 20
-131.3337271469
 10
485.4879646919
 20
-129.2579399103
 10
488.9837337529
 20
-127.4083173058
 10
492.4659936748
 20
-125.790576411
 10
495.9239809917
 20
-124.4097175701
 10
499.347007263
 20
-123.2700089388
 10
502.7244921105
 20
-122.3749732911
 10
506.0459959223
 20
-121.7273771309
 10
509.3012521203
 20
-121.3292221409
 10
512.4801988943
 20
-121.1817389952
 10
515.5730103018
 20
-121.2853835559
 10
518.5701266402
 20
-121.6398354635
 10
519.758181043
 20
-121.8552373515
  0
LWPOLYLINE
  5
168
330
1F
100
AcDbEntity
  8
0
  6
Continuous
 62
     1
370
    25
100
AcDbPolyline
 90
       21
 70
   128
 43
0.0
 10
559.6259951048
 20
-134.5428959406
 10
558.7877681641
 20
-134.2549975716
 10
557.7037069732
 20
-134.1580661654
 10
556.533285393
 20
-134.321157201
 10
555.3068167277
 20
-134.7400467062
 10
554.0560658715
 20
-135.4038856628
 10
552.8134266145
 20
-136.2954809907
 10
551.6110826609
 20
-137.3917408391
 10
550.4801740873
 20
-138.6642726538
 10
549.4499908319
 20
-140.0801185293
 10
548.5472140998
 20
-141.602608801
 10
547.7952253342
 20
-143.1923117706
 10
547.213500649
 20
-144.8080549663
 10
546.8171064082
 20
-146.4079914881
 10
546.6163090143
 20
-147.9506838203
 10
546.6163090143
 20
-149.396177042
 10
546.8171064082
 20
-150.707033638
 10
547.213500649
 20
-151.849303111
 10
547.7952253342
 20
-152.7934012816
 10
548.5472140998
 20
-153.5148765032
 10
548.8765376974
 20
-153.7282165
  0
LWPOLYLINE
  5
169
330
1F
100
AcDbEntity
  8
0
  6
Continuous
 62
     1
370
    25
100
AcDbPolyline
 90
       21
 70
   128
 43
0.0
 10
474.3135619546
 20
-282.3083642403
 10
473.4753350139
 20
-282.0204658713
 10
472.391273823
 20
-281.9235344651
 10
471.2208522429
 20
-282.0866255007
 10
469.9943835776
 20
-282.5055150059
 10
468.7436327213
 20
-283.1693539626
 10
467.5009934644
 20
-284.0609492904
 10
466.2986495107
 20
-285.1572091388
 10
465.1677409371
 20
-286.4297409536
 10
464.1375576817
 20
-287.845586829
 10
463.2347809496
 20
-289.3680771007
 10
462.482792184
 20
-290.9577800703
 10
461.9010674989
 20
-292.5735232661
 10
461.504673258
 20
-294.1734597878
 10
461.3038758641
 20
-295.71615212
 10
461.3038758641
 20
-297.1616453417
 10
461.504673258
 20
-298.4725019377
 10
461.9010674989
 20
-299.6147714107
 10
462.482792184
 20
-300.5588695814
 10
463.2347809496
 20
-301.280344803
 10
463.5641045473
 20
-301.4936847997
  0
LWPOLYLINE
  5
16A
330
1F
100
AcDbEntity
  8
0
  6
Continuous
 62
     1
370
    25
100
AcDbPolyline
 90
       21
 70
   128
 43
0.0
 10
534.6385619546
 20
-79.3067506263
 10
533.8003350139
 20
-79.0188522573
 10
532.716273823
 20
-78.9219208511
 10
531.5458522429
 20
-79.0850118867
 10
530.3193835776
 20
-79.5039013919
 10
529.0686327214
 20
-80.1677403486
 10
527.8259934644
 20
-81.0593356765
 10
526.6236495107
 20
-82.1555955249
 10
525.4927409372
 20
-83.4281273396
 10
524.4625576817
 20
-84.843973215
 10
523.5597809496
 20
-86.3664634867
 10
522.807792184
 20
-87.9561664564
 10
522.2260674989
 20
-89.5719096521
 10
521.829673258
 20
-91.1718461738
 10
521.6288758641
 20
-92.7145385061
 10
521.6288758641
 20
-94.1600317278
 10
521.829673258
 20
-95.4708883238
 10
522.2260674989
 20
-96.6131577967
 10
522.807792184
 20
-97.5572559674
 10
523.5597809496
 20
-98.278731189
 10
523.8891045473
 20
-98.4920711858
  0
LWPOLYLINE
  5
16B
330
1F
100
AcDbEntity
  8
0
  6
Continuous
 62
     1
370
    25
100
AcDbPolyline
 90
       21
 70
   128
 43
0.0
 10
413.9885619546
 20
-288.2786799462
 10
413.1503350139
 20
-287.9907815772
 10
412.066273823
 20
-287.893850171
 10
410.8958522429
 20
-288.0569412066
 10
409.6693835776
 20
-288.4758307118
 10
408.4186327213
 20
-289.1396696685
 10
407.1759934644
 20
-290.0312649964
 10
405.9736495107
 20
-291.1275248448
 10
404.8427409371
 20
-292.4000566595
 10
403.8125576817
 20
-293.8159025349
 10
402.9097809496
 20
-295.3383928066
 10
402.157792184
 20
-296.9280957763
 10
401.5760674989
 20
-298.543838972
 10
401.179673258
 20
-300.1437754937
 10
400.9788758641
 20
-301.686467826
 10
400.9788758641
 20
-303.1319610477
 10
401.179673258
 20
-304.4428176436
 10
401.5760674989
 20
-305.5850871166
 10
402.157792184
 20
-306.5291852873
 10
402.9097809496
 20
-307.2506605089
 10
403.2391045473
 20
-307.4640005057
  0
LWPOLYLINE
  5
16C
330
1F
100
AcDbEntity
  8
0
  6
Continuous
 62
     1
370
    25
100
AcDbPolyline
 90
       21
 70
   128
 43
0.0
 10
474.3135619546
 20
-85.2770663323
 10
473.4753350139
 20
-84.9891679632
 10
472.391273823
 20
-84.892236557
 10
471.2208522429
 20
-85.0553275926
 10
469.9943835776
 20
-85.4742170978
 10
468.7436327214
 20
-86.1380560545
 10
467.5009934644
 20
-87.0296513824
 10
466.2986495107
 20
-88.1259112308
 10
465.1677409372
 20
-89.3984430455
 10
464.1375576817
 20
-90.8142889209
 10
463.2347809496
 20
-92.3367791926
 10
462.482792184
 20
-93.9264821623
 10
461.9010674989
 20
-95.542225358
 10
461.504673258
 20
-97.1421618798
 10
461.3038758641
 20
-98.684854212
 10
461.3038758641
 20
-100.1303474337
 10
461.504673258
 20
-101.4412040297
 10
461.9010674989
 20
-102.5834735027
 10
462.482792184
 20
-103.5275716733
 10
463.2347809496
 20
-104.2490468949
 10
463.5641045473
 20
-104.4623868917
  0
LWPOLYLINE
  5
16D
330
1F
100
AcDbEntity
  8
0
  6
Continuous
 62
     1
370
    25
100
AcDbPolyline
 90
       21
 70
   128
 43
0.0
 10
389.0011288044
 20
-233.042534632
 10
388.1629018638
 20
-232.754636263
 10
387.0788406729
 20
-232.6577048568
 10
385.9084190927
 20
-232.8207958924
 10
384.6819504274
 20
-233.2396853976
 10
383.4311995712
 20
-233.9035243542
 10
382.1885603142
 20
-234.7951196821
 10
380.9862163606
 20
-235.8913795305
 10
379.855307787
 20
-237.1639113452
 10
378.8251245316
 20
-238.5797572207
 10
377.9223477995
 20
-240.1022474924
 10
377.1703590338
 20
-241.691950462
 10
376.5886343487
 20
-243.3076936577
 10
376.1922401079
 20
-244.9076301795
 10
375.991442714
 20
-246.4503225117
 10
375.991442714
 20
-247.8958157334
 10
376.1922401079
 20
-249.2066723294
 10
376.5886343487
 20
-250.3489418024
 10
377.1703590338
 20
-251.293039973
 10
377.9223477995
 20
-252.0145151946
 10
378.2516713971
 20
-252.2278551914
  0
LWPOLYLINE
  5
16E
330
1F
100
AcDbEntity
  8
0
  6
Continuous
 62
     1
370
    25
100
AcDbPolyline
 90
       21
 70
   128
 43
0.0
 10
413.9885619546
 20
-148.9565130895
 10
413.1503350139
 20
-148.6686147204
 10
412.066273823
 20
-148.5716833142
 10
410.8958522429
 20
-148.7347743498
 10
409.6693835776
 20
-149.153663855
 10
408.4186327214
 20
-149.8175028117
 10
407.1759934644
 20
-150.7090981396
 10
405.9736495107
 20
-151.805357988
 10
404.8427409372
 20
-153.0778898027
 10
403.8125576817
 20
-154.4937356781
 10
402.9097809496
 20
-156.0162259498
 10
402.157792184
 20
-157.6059289195
 10
401.5760674989
 20
-159.2216721152
 10
401.179673258
 20
-160.821608637
 10
400.9788758641
 20
-162.3643009692
 10
400.9788758641
 20
-163.8097941909
 10
401.179673258
 20
-165.1206507869
 10
401.5760674989
 20
-166.2629202599
 10
402.157792184
 20
-167.2070184305
 10
402.9097809496
 20
-167.9284936521
 10
403.2391045473
 20
-168.1418336489
  0
ENDSEC
  0
SECTION
  2
OBJECTS
  0
DICTIONARY
  5
C
330
0
100
AcDbDictionary
281
     1
  3
ACAD_GROUP
350
D
  3
ACAD_LAYOUT
350
1A
  3
ACAD_MLINESTYLE
350
17
  3
ACAD_PLOTSETTINGS
350
19
  3
ACAD_PLOTSTYLENAME
350
E
  3
ACAD_SCALELIST
350
47
  3
DWGPROPS
350
16F
  0
DICTIONARY
  5
D
102
{ACAD_REACTORS
330
C
102
}
330
C
100
AcDbDictionary
281
     1
  0
DICTIONARY
  5
1A
102
{ACAD_REACTORS
330
C
102
}
330
C
100
AcDbDictionary
281
     1
  3
Layout1
350
1E
  3
Layout2
350
26
  3
Model
350
22
  0
DICTIONARY
  5
17
102
{ACAD_REACTORS
330
C
102
}
330
C
100
AcDbDictionary
281
     1
  3
Standard
350
18
  0
DICTIONARY
  5
19
102
{ACAD_REACTORS
330
C
102
}
330
C
100
AcDbDictionary
281
     1
  0
ACDBDICTIONARYWDFLT
  5
E
102
{ACAD_REACTORS
330
C
102
}
330
C
100
AcDbDictionary
281
     1
  3
Normal
350
F
100
AcDbDictionaryWithDefault
340
F
  0
DICTIONARY
  5
47
102
{ACAD_REACTORS
330
C
102
}
330
C
100
AcDbDictionary
281
     1
  3
A0
350
48
  3
A1
350
49
  3
A2
350
4A
  3
A3
350
4B
  3
A4
350
4C
  3
A5
350
4D
  3
A6
350
4E
  3
A7
350
4F
  3
A8
350
50
  3
A9
350
51
  3
B0
350
52
  3
B1
350
53
  3
B2
350
54
  3
B3
350
55
  3
B4
350
56
  3
B5
350
57
  3
B6
350
58
  3
B7
350
59
  3
B8
350
5A
  3
B9
350
5B
  3
C0
350
5C
  3
C1
350
5D
  3
C2
350
5E
  3
C3
350
5F
  3
C4
350
60
  3
C5
350
61
  3
C6
350
62
  3
C7
350
63
  3
C8
350
64
  3
C9
350
65
  3
D0
350
66
  3
D1
350
67
  3
D2
350
68
  0
XRECORD
  5
16F
102
{ACAD_REACTORS
330
C
102
}
330
C
100
AcDbXrecord
280
     1
  1
DWGPROPS COOKIE
  2

  3

  4

  6

  7

  8
b.kav
  9

300
=
301
=
302
=
303
=
304
=
305
=
306
=
307
=
308
=
309
=
 40
0.0
 41
2459741.463694988
 42
2459741.463696968
  1

 90
        0
  0
LAYOUT
  5
1E
102
{ACAD_REACTORS
330
1A
102
}
330
1A
100
AcDbPlotSettings
  1

  2
none_device
  4

  6

 40
0.0
 41
0.0
 42
0.0
 43
0.0
 44
0.0
 45
0.0
 46
0.0
 47
0.0
 48
0.0
 49
0.0
140
0.0
141
0.0
142
1.0
143
1.0
 70
   688
 72
     1
 73
     0
 74
     5
  7

 75
    16
147
1.0
148
0.0
149
0.0
100
AcDbLayout
  1
Layout1
 70
     1
 71
     1
 10
0.0
 20
0.0
 11
420.0
 21
297.0
 12
0.0
 22
0.0
 32
0.0
 14
1.0000000000E+20
 24
1.0000000000E+20
 34
1.0000000000E+20
 15
-1.0000000000E+20
 25
-1.0000000000E+20
 35
-1.0000000000E+20
146
0.0
 13
0.0
 23
0.0
 33
0.0
 16
1.0
 26
0.0
 36
0.0
 17
0.0
 27
1.0
 37
0.0
 76
     0
330
1B
  0
LAYOUT
  5
26
102
{ACAD_REACTORS
330
1A
102
}
330
1A
100
AcDbPlotSettings
  1

  2
none_device
  4

  6

 40
0.0
 41
0.0
 42
0.0
 43
0.0
 44
0.0
 45
0.0
 46
0.0
 47
0.0
 48
0.0
 49
0.0
140
0.0
141
0.0
142
1.0
143
1.0
 70
   688
 72
     1
 73
     0
 74
     5
  7

 75
    16
147
1.0
148
0.0
149
0.0
100
AcDbLayout
  1
Layout2
 70
     1
 71
     2
 10
0.0
 20
0.0
 11
0.0
 21
0.0
 12
0.0
 22
0.0
 32
0.0
 14
0.0
 24
0.0
 34
0.0
 15
0.0
 25
0.0
 35
0.0
146
0.0
 13
0.0
 23
0.0
 33
0.0
 16
1.0
 26
0.0
 36
0.0
 17
0.0
 27
1.0
 37
0.0
 76
     0
330
23
  0
LAYOUT
  5
22
102
{ACAD_REACTORS
330
1A
102
}
330
1A
100
AcDbPlotSettings
  1

  2
none_device
  4
Letter_(8.50_x_11.00_Inches)
  6

 40
6.35
 41
6.35
 42
6.35000508
 43
6.35000508
 44
215.9
 45
279.4
 46
0.0
 47
0.0
 48
0.0
 49
0.0
140
0.0
141
0.0
142
1.0
143
1.0
 70
  1712
 72
     1
 73
     0
 74
     0
  7

 75
     0
147
1.0
148
0.0
149
0.0
100
AcDbLayout
  1
Model
 70
     1
 71
     0
 10
0.0
 20
0.0
 11
279.4
 21
215.9
 12
0.0
 22
0.0
 32
0.0
 14
0.0
 24
0.0
 34
0.0
 15
279.4
 25
215.9
 35
0.0
146
0.0
 13
0.0
 23
0.0
 33
0.0
 16
1.0
 26
0.0
 36
0.0
 17
0.0
 27
1.0
 37
0.0
 76
     0
330
1F
331
29
  0
MLINESTYLE
  5
18
102
{ACAD_REACTORS
330
17
102
}
330
17
100
AcDbMlineStyle
  2
Standard
 70
     0
  3

 62
   256
 51
90.0
 52
90.0
 71
     2
 49
0.5
 62
   256
  6
BYLAYER
 49
-0.5
 62
   256
  6
BYLAYER
  0
ACDBPLACEHOLDER
  5
F
102
{ACAD_REACTORS
330
E
102
}
330
E
  0
SCALE
  5
48
102
{ACAD_REACTORS
330
47
102
}
330
47
100
AcDbScale
 70
     0
300
1:1
140
1.0
141
1.0
290
     1
  0
SCALE
  5
49
102
{ACAD_REACTORS
330
47
102
}
330
47
100
AcDbScale
 70
     0
300
1:2
140
1.0
141
2.0
290
     0
  0
SCALE
  5
4A
102
{ACAD_REACTORS
330
47
102
}
330
47
100
AcDbScale
 70
     0
300
1:4
140
1.0
141
4.0
290
     0
  0
SCALE
  5
4B
102
{ACAD_REACTORS
330
47
102
}
330
47
100
AcDbScale
 70
     0
300
1:5
140
1.0
141
5.0
290
     0
  0
SCALE
  5
4C
102
{ACAD_REACTORS
330
47
102
}
330
47
100
AcDbScale
 70
     0
300
1:8
140
1.0
141
8.0
290
     0
  0
SCALE
  5
4D
102
{ACAD_REACTORS
330
47
102
}
330
47
100
AcDbScale
 70
     0
300
1:10
140
1.0
141
10.0
290
     0
  0
SCALE
  5
4E
102
{ACAD_REACTORS
330
47
102
}
330
47
100
AcDbScale
 70
     0
300
1:16
140
1.0
141
16.0
290
     0
  0
SCALE
  5
4F
102
{ACAD_REACTORS
330
47
102
}
330
47
100
AcDbScale
 70
     0
300
1:20
140
1.0
141
20.0
290
     0
  0
SCALE
  5
50
102
{ACAD_REACTORS
330
47
102
}
330
47
100
AcDbScale
 70
     0
300
1:30
140
1.0
141
30.0
290
     0
  0
SCALE
  5
51
102
{ACAD_REACTORS
330
47
102
}
330
47
100
AcDbScale
 70
     0
300
1:40
140
1.0
141
40.0
290
     0
  0
SCALE
  5
52
102
{ACAD_REACTORS
330
47
102
}
330
47
100
AcDbScale
 70
     0
300
1:50
140
1.0
141
50.0
290
     0
  0
SCALE
  5
53
102
{ACAD_REACTORS
330
47
102
}
330
47
100
AcDbScale
 70
     0
300
1:100
140
1.0
141
100.0
290
     0
  0
SCALE
  5
54
102
{ACAD_REACTORS
330
47
102
}
330
47
100
AcDbScale
 70
     0
300
2:1
140
2.0
141
1.0
290
     0
  0
SCALE
  5
55
102
{ACAD_REACTORS
330
47
102
}
330
47
100
AcDbScale
 70
     0
300
4:1
140
4.0
141
1.0
290
     0
  0
SCALE
  5
56
102
{ACAD_REACTORS
330
47
102
}
330
47
100
AcDbScale
 70
     0
300
8:1
140
8.0
141
1.0
290
     0
  0
SCALE
  5
57
102
{ACAD_REACTORS
330
47
102
}
330
47
100
AcDbScale
 70
     0
300
10:1
140
10.0
141
1.0
290
     0
  0
SCALE
  5
58
102
{ACAD_REACTORS
330
47
102
}
330
47
100
AcDbScale
 70
     0
300
100:1
140
100.0
141
1.0
290
     0
  0
SCALE
  5
59
102
{ACAD_REACTORS
330
47
102
}
330
47
100
AcDbScale
 70
     0
300
1/128" = 1'-0"
140
0.0078125
141
12.0
290
     0
  0
SCALE
  5
5A
102
{ACAD_REACTORS
330
47
102
}
330
47
100
AcDbScale
 70
     0
300
1/64" = 1'-0"
140
0.015625
141
12.0
290
     0
  0
SCALE
  5
5B
102
{ACAD_REACTORS
330
47
102
}
330
47
100
AcDbScale
 70
     0
300
1/32" = 1'-0"
140
0.03125
141
12.0
290
     0
  0
SCALE
  5
5C
102
{ACAD_REACTORS
330
47
102
}
330
47
100
AcDbScale
 70
     0
300
1/16" = 1'-0"
140
0.0625
141
12.0
290
     0
  0
SCALE
  5
5D
102
{ACAD_REACTORS
330
47
102
}
330
47
100
AcDbScale
 70
     0
300
3/32" = 1'-0"
140
0.09375
141
12.0
290
     0
  0
SCALE
  5
5E
102
{ACAD_REACTORS
330
47
102
}
330
47
100
AcDbScale
 70
     0
300
1/8" = 1'-0"
140
0.125
141
12.0
290
     0
  0
SCALE
  5
5F
102
{ACAD_REACTORS
330
47
102
}
330
47
100
AcDbScale
 70
     0
300
3/16" = 1'-0"
140
0.1875
141
12.0
290
     0
  0
SCALE
  5
60
102
{ACAD_REACTORS
330
47
102
}
330
47
100
AcDbScale
 70
     0
300
1/4" = 1'-0"
140
0.25
141
12.0
290
     0
  0
SCALE
  5
61
102
{ACAD_REACTORS
330
47
102
}
330
47
100
AcDbScale
 70
     0
300
3/8" = 1'-0"
140
0.375
141
12.0
290
     0
  0
SCALE
  5
62
102
{ACAD_REACTORS
330
47
102
}
330
47
100
AcDbScale
 70
     0
300
1/2" = 1'-0"
140
0.5
141
12.0
290
     0
  0
SCALE
  5
63
102
{ACAD_REACTORS
330
47
102
}
330
47
100
AcDbScale
 70
     0
300
3/4" = 1'-0"
140
0.75
141
12.0
290
     0
  0
SCALE
  5
64
102
{ACAD_REACTORS
330
47
102
}
330
47
100
AcDbScale
 70
     0
300
1" = 1'-0"
140
1.0
141
12.0
290
     0
  0
SCALE
  5
65
102
{ACAD_REACTORS
330
47
102
}
330
47
100
AcDbScale
 70
     0
300
1-1/2" = 1'-0"
140
1.5
141
12.0
290
     0
  0
SCALE
  5
66
102
{ACAD_REACTORS
330
47
102
}
330
47
100
AcDbScale
 70
     0
300
3" = 1'-0"
140
3.0
141
12.0
290
     0
  0
SCALE
  5
67
102
{ACAD_REACTORS
330
47
102
}
330
47
100
AcDbScale
 70
     0
300
6" = 1'-0"
140
6.0
141
12.0
290
     0
  0
SCALE
  5
68
102
{ACAD_REACTORS
330
47
102
}
330
47
100
AcDbScale
 70
     0
300
1'-0" = 1'-0"
140
12.0
141
12.0
290
     0
  0
ENDSEC
  0
EOF
